  0
SECTION
  2
HEADER
  9
$ACADVER
  1
AC1009
  9
$DWGCODEPAGE
  3
ansi_1252
  9
$INSBASE
 10
0.0
 20
0.0
 30
0.0
  9
$EXTMIN
 10
1.000000000000000E+20
 20
1.000000000000000E+20
 30
1.000000000000000E+20
  9
$EXTMAX
 10
-1.000000000000000E+20
 20
-1.000000000000000E+20
 30
-1.000000000000000E+20
  9
$LIMMIN
 10
0.0
 20
0.0
  9
$LIMMAX
 10
12.0
 20
9.0
  9
$ORTHOMODE
 70
     0
  9
$REGENMODE
 70
     1
  9
$FILLMODE
 70
     1
  9
$QTEXTMODE
 70
     0
  9
$MIRRTEXT
 70
     1
  9
$DRAGMODE
 70
     2
  9
$LTSCALE
 40
1.0
  9
$OSMODE
 70
    37
  9
$ATTMODE
 70
     1
  9
$TEXTSIZE
 40
0.2
  9
$TRACEWID
 40
0.05
  9
$TEXTSTYLE
  7
STANDARD
  9
$CLAYER
  8
DRAFT
  9
$CELTYPE
  6
BYLAYER
  9
$CECOLOR
 62
   256
  9
$DIMSCALE
 40
1.0
  9
$DIMASZ
 40
0.18
  9
$DIMEXO
 40
0.0625
  9
$DIMDLI
 40
0.38
  9
$DIMRND
 40
0.0
  9
$DIMDLE
 40
0.0
  9
$DIMEXE
 40
0.18
  9
$DIMTP
 40
0.0
  9
$DIMTM
 40
0.0
  9
$DIMTXT
 40
0.18
  9
$DIMCEN
 40
0.09
  9
$DIMTSZ
 40
0.0
  9
$DIMTOL
 70
     0
  9
$DIMLIM
 70
     0
  9
$DIMTIH
 70
     1
  9
$DIMTOH
 70
     1
  9
$DIMSE1
 70
     0
  9
$DIMSE2
 70
     0
  9
$DIMTAD
 70
     0
  9
$DIMZIN
 70
     0
  9
$DIMBLK
  1

  9
$DIMASO
 70
     1
  9
$DIMSHO
 70
     1
  9
$DIMPOST
  1

  9
$DIMAPOST
  1

  9
$DIMALT
 70
     0
  9
$DIMALTD
 70
     2
  9
$DIMALTF
 40
25.4
  9
$DIMLFAC
 40
1.0
  9
$DIMTOFL
 70
     0
  9
$DIMTVP
 40
0.0
  9
$DIMTIX
 70
     0
  9
$DIMSOXD
 70
     0
  9
$DIMSAH
 70
     0
  9
$DIMBLK1
  1

  9
$DIMBLK2
  1

  9
$DIMSTYLE
  2
STANDARD_ACAD
  9
$DIMCLRD
 70
     0
  9
$DIMCLRE
 70
     0
  9
$DIMCLRT
 70
     0
  9
$DIMTFAC
 40
1.0
  9
$DIMGAP
 40
0.09
  9
$LUNITS
 70
     2
  9
$LUPREC
 70
     3
  9
$SKETCHINC
 40
0.1
  9
$FILLETRAD
 40
0.5
  9
$AUNITS
 70
     0
  9
$AUPREC
 70
     0
  9
$MENU
  1
.
  9
$ELEVATION
 40
0.0
  9
$PELEVATION
 40
0.0
  9
$THICKNESS
 40
0.0
  9
$LIMCHECK
 70
     0
  9
$CHAMFERA
 40
0.0
  9
$CHAMFERB
 40
0.0
  9
$SKPOLY
 70
     0
  9
$TDCREATE
 40
2458940.467354537
  9
$TDUPDATE
 40
2458940.467375393
  9
$TDINDWG
 40
0.0000000116
  9
$TDUSRTIMER
 40
0.0000000116
  9
$USRTIMER
 70
     1
  9
$ANGBASE
 50
0.0
  9
$ANGDIR
 70
     0
  9
$PDMODE
 70
     0
  9
$PDSIZE
 40
0.0
  9
$PLINEWID
 40
0.0
  9
$COORDS
 70
     1
  9
$SPLFRAME
 70
     0
  9
$SPLINETYPE
 70
     6
  9
$SPLINESEGS
 70
     8
  9
$ATTDIA
 70
     0
  9
$ATTREQ
 70
     1
  9
$HANDLING
 70
     1
  9
$HANDSEED
  5
91C
  9
$SURFTAB1
 70
     6
  9
$SURFTAB2
 70
     6
  9
$SURFTYPE
 70
     6
  9
$SURFU
 70
     6
  9
$SURFV
 70
     6
  9
$UCSNAME
  2

  9
$UCSORG
 10
0.0
 20
0.0
 30
0.0
  9
$UCSXDIR
 10
1.0
 20
0.0
 30
0.0
  9
$UCSYDIR
 10
0.0
 20
1.0
 30
0.0
  9
$PUCSNAME
  2

  9
$PUCSORG
 10
0.0
 20
0.0
 30
0.0
  9
$PUCSXDIR
 10
1.0
 20
0.0
 30
0.0
  9
$PUCSYDIR
 10
0.0
 20
1.0
 30
0.0
  9
$USERI1
 70
     0
  9
$USERI2
 70
     0
  9
$USERI3
 70
     0
  9
$USERI4
 70
     0
  9
$USERI5
 70
     0
  9
$USERR1
 40
0.0
  9
$USERR2
 40
0.0
  9
$USERR3
 40
0.0
  9
$USERR4
 40
0.0
  9
$USERR5
 40
0.0
  9
$WORLDVIEW
 70
     1
  9
$SHADEDGE
 70
     3
  9
$SHADEDIF
 70
    70
  9
$TILEMODE
 70
     1
  9
$MAXACTVP
 70
    64
  9
$PLIMCHECK
 70
     0
  9
$PEXTMIN
 10
1.000000000000000E+20
 20
1.000000000000000E+20
 30
1.000000000000000E+20
  9
$PEXTMAX
 10
-1.000000000000000E+20
 20
-1.000000000000000E+20
 30
-1.000000000000000E+20
  9
$PLIMMIN
 10
0.0
 20
0.0
  9
$PLIMMAX
 10
12.0
 20
9.0
  9
$UNITMODE
 70
     0
  9
$VISRETAIN
 70
     1
  9
$PLINEGEN
 70
     0
  9
$PSLTSCALE
 70
     1
  0
ENDSEC
  0
SECTION
  2
TABLES
  0
TABLE
  2
VPORT
 70
     1
  0
VPORT
  2
*ACTIVE
 70
     0
 10
0.0
 20
0.0
 11
1.0
 21
1.0
 12
10.42990654205607
 22
4.5
 13
0.0
 23
0.0
 14
0.5
 24
0.5
 15
0.5
 25
0.5
 16
0.0
 26
0.0
 36
1.0
 17
0.0
 27
0.0
 37
0.0
 40
9.0
 41
1.972972972850329
 42
50.0
 43
0.0
 44
0.0
 50
0.0
 51
0.0
 71
     0
 72
   100
 73
     1
 74
     3
 75
     0
 76
     0
 77
     0
 78
     0
  0
ENDTAB
  0
TABLE
  2
LTYPE
 70
     1
  0
LTYPE
  2
CONTINUOUS
 70
     0
  3
Solid line
 72
    65
 73
     0
 40
0.0
  0
ENDTAB
  0
TABLE
  2
LAYER
 70
     2
  0
LAYER
  2
0
 70
     0
 62
     7
  6
CONTINUOUS
  0
LAYER
  2
DRAFT
 70
     0
 62
    30
  6
CONTINUOUS
  0
ENDTAB
  0
TABLE
  2
STYLE
 70
     1
  0
STYLE
  2
STANDARD
 70
     0
 40
0.0
 41
1.0
 50
0.0
 71
     0
 42
0.2
  3
txt
  4

  0
ENDTAB
  0
TABLE
  2
VIEW
 70
     0
  0
ENDTAB
  0
TABLE
  2
UCS
 70
     0
  0
ENDTAB
  0
TABLE
  2
APPID
 70
     1
  0
APPID
  2
ACAD
 70
     0
  0
ENDTAB
  0
TABLE
  2
DIMSTYLE
 70
     1
  0
DIMSTYLE
  2
STANDARD_ACAD
 70
     0
  3

  4

  5

  6

  7

 40
1.0
 41
0.18
 42
0.0625
 43
0.38
 44
0.18
 45
0.0
 46
0.0
 47
0.0
 48
0.0
140
0.18
141
0.09
142
0.0
143
25.4
144
1.0
145
0.0
146
1.0
147
0.09
 71
     0
 72
     0
 73
     1
 74
     1
 75
     0
 76
     0
 77
     0
 78
     0
170
     0
171
     2
172
     0
173
     0
174
     0
175
     0
176
     0
177
     0
178
     0
  0
ENDTAB
  0
ENDSEC
  0
SECTION
  2
BLOCKS
  0
BLOCK
  8
0
  2
$MODEL_SPACE
 70
     0
 10
0.0
 20
0.0
 30
0.0
  3
$MODEL_SPACE
  1

  0
ENDBLK
  5
21
  8
0
  0
BLOCK
 67
     1
  8
0
  2
$PAPER_SPACE
 70
     0
 10
0.0
 20
0.0
 30
0.0
  3
$PAPER_SPACE
  1

  0
ENDBLK
  5
1D
 67
     1
  8
0
  0
ENDSEC
  0
SECTION
  2
ENTITIES
  0
POLYLINE
  5
6F
  8
DRAFT
 66
     1
 10
0.0
 20
0.0
 30
0.0
 70
     1
  0
VERTEX
  5
70
  8
DRAFT
 10
-757.4250166548032
 20
-27.47394454808707
 30
0.0
  0
VERTEX
  5
71
  8
DRAFT
 10
-757.3923261687997
 20
-27.0132439273448
 30
0.0
 42
0.1989123673798636
  0
VERTEX
  5
72
  8
DRAFT
 10
-757.4679853695599
 20
-26.7863488147049
 30
0.0
  0
VERTEX
  5
73
  8
DRAFT
 10
-757.4863586039099
 20
-26.76516896475504
 30
0.0
 42
1.000000000003347
  0
VERTEX
  5
74
  8
DRAFT
 10
-757.5221411320279
 20
-26.79620982558831
 30
0.0
  0
VERTEX
  5
75
  8
DRAFT
 10
-757.5097955049956
 20
-26.81044131706667
 30
0.0
 42
-0.1989123673788125
  0
VERTEX
  5
76
  8
DRAFT
 10
-757.4341363042362
 20
-27.03733642970636
 30
0.0
  0
VERTEX
  5
77
  8
DRAFT
 10
-757.450915170249
 20
-27.27379770429436
 30
0.0
 42
-0.66817863792254
  0
VERTEX
  5
78
  8
DRAFT
 10
-757.5056924960663
 20
-27.29206345115378
 30
0.0
  0
VERTEX
  5
79
  8
DRAFT
 10
-757.758198160731
 20
-27.00098611620822
 30
0.0
 42
-0.3453056976020314
  0
VERTEX
  5
7A
  8
DRAFT
 10
-757.778761577377
 20
-26.58661801115334
 30
0.0
 42
-0.1210102841093391
  0
VERTEX
  5
7B
  8
DRAFT
 10
-757.175739626876
 20
-26.06350459716183
 30
0.0
 42
-0.3453056975994135
  0
VERTEX
  5
7C
  8
DRAFT
 10
-756.7684270243302
 20
-26.14237299639756
 30
0.0
  0
VERTEX
  5
7D
  8
DRAFT
 10
-756.5159213596647
 20
-26.43345033134209
 30
0.0
 42
-0.6681786379107565
  0
VERTEX
  5
7E
  8
DRAFT
 10
-756.5417389447376
 20
-26.48509958335093
 30
0.0
  0
VERTEX
  5
7F
  8
DRAFT
 10
-756.7782002193263
 20
-26.46832071733701
 30
0.0
 42
-0.198912367377041
  0
VERTEX
  5
80
  8
DRAFT
 10
-756.9921384260075
 20
-26.36138077848764
 30
0.0
  0
VERTEX
  5
81
  8
DRAFT
 10
-757.00448405304
 20
-26.34714928700957
 30
0.0
 42
1.000000000020577
  0
VERTEX
  5
82
  8
DRAFT
 10
-757.0402665811578
 20
-26.37819014784301
 30
0.0
  0
VERTEX
  5
83
  8
DRAFT
 10
-757.0218933468076
 20
-26.39936999779288
 30
0.0
 42
0.1989123673804894
  0
VERTEX
  5
84
  8
DRAFT
 10
-756.8079551401256
 20
-26.50630993664321
 30
0.0
  0
VERTEX
  5
85
  8
DRAFT
 10
-756.3472545193835
 20
-26.53900042264804
 30
0.0
 42
-0.1989123673800306
  0
VERTEX
  5
86
  8
DRAFT
 10
-756.2616792367103
 20
-26.58177639818743
 30
0.0
  0
VERTEX
  5
87
  8
DRAFT
 10
-750.549130347613
 20
-33.16694948167417
 30
0.0
 42
-0.1989123673781392
  0
VERTEX
  5
88
  8
DRAFT
 10
-750.5188666673089
 20
-33.25770752673014
 30
0.0
  0
VERTEX
  5
89
  8
DRAFT
 10
-750.5515571533133
 20
-33.71840814747227
 30
0.0
 42
0.1989123673773568
  0
VERTEX
  5
8A
  8
DRAFT
 10
-750.4758979525535
 20
-33.9453032601121
 30
0.0
  0
VERTEX
  5
8B
  8
DRAFT
 10
-750.457524718203
 20
-33.96648311006207
 30
0.0
 42
1.000000000010412
  0
VERTEX
  5
8C
  8
DRAFT
 10
-750.4217421900848
 20
-33.93544224922842
 30
0.0
  0
VERTEX
  5
8D
  8
DRAFT
 10
-750.4340878171173
 20
-33.92121075775042
 30
0.0
 42
-0.198912367379986
  0
VERTEX
  5
8E
  8
DRAFT
 10
-750.5097470178767
 20
-33.69431564511075
 30
0.0
  0
VERTEX
  5
8F
  8
DRAFT
 10
-750.4929681518639
 20
-33.4578543705227
 30
0.0
 42
-0.6681786379225116
  0
VERTEX
  5
90
  8
DRAFT
 10
-750.4381908260464
 20
-33.43958862366323
 30
0.0
  0
VERTEX
  5
91
  8
DRAFT
 10
-750.185685161382
 20
-33.73066595860884
 30
0.0
 42
-0.3453056976012234
  0
VERTEX
  5
92
  8
DRAFT
 10
-750.1651217447366
 20
-34.14503406366352
 30
0.0
 42
-0.1210102841105191
  0
VERTEX
  5
93
  8
DRAFT
 10
-750.7681436952367
 20
-34.66814747765559
 30
0.0
 42
-0.3453056976006711
  0
VERTEX
  5
94
  8
DRAFT
 10
-751.1754562977821
 20
-34.58927907841927
 30
0.0
  0
VERTEX
  5
95
  8
DRAFT
 10
-751.4279619624482
 20
-34.29820174347496
 30
0.0
 42
-0.6681786379224799
  0
VERTEX
  5
96
  8
DRAFT
 10
-751.4021443773752
 20
-34.24655249146672
 30
0.0
  0
VERTEX
  5
97
  8
DRAFT
 10
-751.1656831027867
 20
-34.26333135748006
 30
0.0
 42
-0.1989123673785612
  0
VERTEX
  5
98
  8
DRAFT
 10
-750.9517448961058
 20
-34.37027129632998
 30
0.0
  0
VERTEX
  5
99
  8
DRAFT
 10
-750.939399269073
 20
-34.38450278780751
 30
0.0
 42
1.00000000005666
  0
VERTEX
  5
9A
  8
DRAFT
 10
-750.9036167409546
 20
-34.35346192697398
 30
0.0
  0
VERTEX
  5
9B
  8
DRAFT
 10
-750.9219899753053
 20
-34.3322820770243
 30
0.0
 42
0.1989123673795535
  0
VERTEX
  5
9C
  8
DRAFT
 10
-751.1359281819874
 20
-34.22534213817383
 30
0.0
  0
VERTEX
  5
9D
  8
DRAFT
 10
-751.5966288027295
 20
-34.19265165216895
 30
0.0
 42
-0.1989123673761649
  0
VERTEX
  5
9E
  8
DRAFT
 10
-751.6822040854023
 20
-34.14987567662968
 30
0.0
  0
VERTEX
  5
9F
  8
DRAFT
 10
-757.3947529744999
 20
-27.564702593143
 30
0.0
 42
-0.1989123673818947
  0
SEQEND
  5
A0
  8
DRAFT
  0
POLYLINE
  5
A1
  8
DRAFT
 66
     1
 10
0.0
 20
0.0
 30
0.0
 70
     1
  0
VERTEX
  5
A2
  8
DRAFT
 10
-756.6875064391836
 20
-26.81487686335472
 30
0.0
  0
VERTEX
  5
A3
  8
DRAFT
 10
-756.5772845352292
 20
-26.7192608473425
 30
0.0
 42
-0.4142135623589468
  0
VERTEX
  5
A4
  8
DRAFT
 10
-756.5332012032975
 20
-26.72238892115184
 30
0.0
  0
VERTEX
  5
A5
  8
DRAFT
 10
-756.1484797628168
 20
-27.16587874043764
 30
0.0
 42
-0.414213562382966
  0
VERTEX
  5
A6
  8
DRAFT
 10
-756.1516078366257
 20
-27.2099620723699
 30
0.0
  0
VERTEX
  5
A7
  8
DRAFT
 10
-756.2618297405807
 20
-27.30557808838189
 30
0.0
 42
-0.9999999999615022
  0
VERTEX
  5
A8
  8
DRAFT
 10
-756.2880411057795
 20
-27.27536278870719
 30
0.0
  0
VERTEX
  5
A9
  8
DRAFT
 10
-756.2080345014989
 20
-27.2059581378941
 30
0.0
 42
0.414213562376865
  0
VERTEX
  5
AA
  8
DRAFT
 10
-756.20490642769
 20
-27.16187480596207
 30
0.0
  0
VERTEX
  5
AB
  8
DRAFT
 10
-756.5372051377727
 20
-26.77881558602488
 30
0.0
 42
0.4142135623723829
  0
VERTEX
  5
AC
  8
DRAFT
 10
-756.5812884697048
 20
-26.77568751221571
 30
0.0
  0
VERTEX
  5
AD
  8
DRAFT
 10
-756.6612950739852
 20
-26.84509216302871
 30
0.0
 42
-1.000000000018247
  0
SEQEND
  5
AE
  8
DRAFT
  0
POLYLINE
  5
AF
  8
DRAFT
 66
     1
 10
0.0
 20
0.0
 30
0.0
 70
     1
  0
VERTEX
  5
B0
  8
DRAFT
 10
-757.1038589937519
 20
-27.17605709247234
 30
0.0
  0
VERTEX
  5
B1
  8
DRAFT
 10
-757.2140808977072
 20
-27.27167310848384
 30
0.0
 42
0.4142135623575112
  0
VERTEX
  5
B2
  8
DRAFT
 10
-757.2172089715165
 20
-27.31575644041648
 30
0.0
  0
VERTEX
  5
B3
  8
DRAFT
 10
-756.8324875310362
 20
-27.75924625970219
 30
0.0
 42
0.4142135623915262
  0
VERTEX
  5
B4
  8
DRAFT
 10
-756.7884041991042
 20
-27.76237433351111
 30
0.0
  0
VERTEX
  5
B5
  8
DRAFT
 10
-756.6781822951492
 20
-27.66675831749927
 30
0.0
 42
0.999999999968122
  0
VERTEX
  5
B6
  8
DRAFT
 10
-756.7043936603478
 20
-27.63654301782492
 30
0.0
  0
VERTEX
  5
B7
  8
DRAFT
 10
-756.7844002646287
 20
-27.70594766863797
 30
0.0
 42
-0.41421356236281
  0
VERTEX
  5
B8
  8
DRAFT
 10
-756.8284835965608
 20
-27.70281959482903
 30
0.0
  0
VERTEX
  5
B9
  8
DRAFT
 10
-757.1607823066428
 20
-27.31976037489144
 30
0.0
 42
-0.4142135623594225
  0
VERTEX
  5
BA
  8
DRAFT
 10
-757.1576542328336
 20
-27.27567704295942
 30
0.0
  0
VERTEX
  5
BB
  8
DRAFT
 10
-757.0776476285536
 20
-27.20627239214629
 30
0.0
 42
1.000000000055251
  0
SEQEND
  5
BC
  8
DRAFT
  0
POLYLINE
  5
BD
  8
DRAFT
 66
     1
 10
0.0
 20
0.0
 30
0.0
 70
     1
  0
VERTEX
  5
BE
  8
DRAFT
 10
-750.8400243283609
 20
-33.55559498234472
 30
0.0
  0
VERTEX
  5
BF
  8
DRAFT
 10
-750.729802424406
 20
-33.45997896633323
 30
0.0
 42
0.4142135623535542
  0
VERTEX
  5
C0
  8
DRAFT
 10
-750.7266743505968
 20
-33.4158956344011
 30
0.0
  0
VERTEX
  5
C1
  8
DRAFT
 10
-751.1113957910767
 20
-32.97240581511497
 30
0.0
 42
0.4142135623705974
  0
VERTEX
  5
C2
  8
DRAFT
 10
-751.1554791230088
 20
-32.96927774130583
 30
0.0
  0
VERTEX
  5
C3
  8
DRAFT
 10
-751.2657010269637
 20
-33.06489375731785
 30
0.0
 42
1.000000000015608
  0
VERTEX
  5
C4
  8
DRAFT
 10
-751.239489661765
 20
-33.09510905699204
 30
0.0
  0
VERTEX
  5
C5
  8
DRAFT
 10
-751.1594830574844
 20
-33.02570440617902
 30
0.0
 42
-0.4142135623622009
  0
VERTEX
  5
C6
  8
DRAFT
 10
-751.1153997255525
 20
-33.02883247998832
 30
0.0
  0
VERTEX
  5
C7
  8
DRAFT
 10
-750.7831010154702
 20
-33.41189169992563
 30
0.0
 42
-0.4142135623904645
  0
VERTEX
  5
C8
  8
DRAFT
 10
-750.7862290892791
 20
-33.45597503185788
 30
0.0
  0
VERTEX
  5
C9
  8
DRAFT
 10
-750.8662356935595
 20
-33.52537968267075
 30
0.0
 42
1.000000000034222
  0
SEQEND
  5
CA
  8
DRAFT
  0
POLYLINE
  5
CB
  8
DRAFT
 66
     1
 10
0.0
 20
0.0
 30
0.0
 70
     1
  0
VERTEX
  5
CC
  8
DRAFT
 10
-751.2563768829291
 20
-33.91677521146269
 30
0.0
  0
VERTEX
  5
CD
  8
DRAFT
 10
-751.366598786884
 20
-34.01239122747449
 30
0.0
 42
-0.4142135623650068
  0
VERTEX
  5
CE
  8
DRAFT
 10
-751.410682118816
 20
-34.00926315366547
 30
0.0
  0
VERTEX
  5
CF
  8
DRAFT
 10
-751.795403559296
 20
-33.56577333437941
 30
0.0
 42
-0.4142135623506777
  0
VERTEX
  5
D0
  8
DRAFT
 10
-751.792275485487
 20
-33.52169000244724
 30
0.0
  0
VERTEX
  5
D1
  8
DRAFT
 10
-751.6820535815322
 20
-33.42607398643547
 30
0.0
 42
-0.9999999999527655
  0
VERTEX
  5
D2
  8
DRAFT
 10
-751.6558422163333
 20
-33.45628928610973
 30
0.0
  0
VERTEX
  5
D3
  8
DRAFT
 10
-751.7358488206139
 20
-33.52569393692298
 30
0.0
 42
0.4142135623787953
  0
VERTEX
  5
D4
  8
DRAFT
 10
-751.7389768944226
 20
-33.56977726885484
 30
0.0
  0
VERTEX
  5
D5
  8
DRAFT
 10
-751.4066781843404
 20
-33.95283648879229
 30
0.0
 42
0.4142135623575897
  0
VERTEX
  5
D6
  8
DRAFT
 10
-751.3625948524084
 20
-33.95596456260107
 30
0.0
  0
VERTEX
  5
D7
  8
DRAFT
 10
-751.2825882481279
 20
-33.88655991178837
 30
0.0
 42
-0.9999999999995343
  0
SEQEND
  5
D8
  8
DRAFT
  0
POLYLINE
  5
D9
  8
DRAFT
 66
     1
 10
0.0
 20
0.0
 30
0.0
 70
     1
  0
VERTEX
  5
DA
  8
DRAFT
 10
-794.3337411970972
 20
-22.30315501971617
 30
0.0
  0
VERTEX
  5
DB
  8
DRAFT
 10
-794.0071575708797
 20
-21.97657139349766
 30
0.0
 42
0.1989123673791204
  0
VERTEX
  5
DC
  8
DRAFT
 10
-793.9156284400012
 20
-21.75560052437649
 30
0.0
  0
VERTEX
  5
DD
  8
DRAFT
 10
-793.9156284400011
 20
-21.72756194765824
 30
0.0
 42
1.0000000000156
  0
VERTEX
  5
DE
  8
DRAFT
 10
-793.9629985187404
 20
-21.72756194765802
 30
0.0
  0
VERTEX
  5
DF
  8
DRAFT
 10
-793.9629985187407
 20
-21.74640206062267
 30
0.0
 42
-0.1989123673781644
  0
VERTEX
  5
E0
  8
DRAFT
 10
-794.0545276496197
 20
-21.96737292974312
 30
0.0
  0
VERTEX
  5
E1
  8
DRAFT
 10
-794.222151431829
 20
-22.13499671195277
 30
0.0
 42
-0.6681786379148706
  0
VERTEX
  5
E2
  8
DRAFT
 10
-794.2754985187416
 20
-22.11289962504074
 30
0.0
  0
VERTEX
  5
E3
  8
DRAFT
 10
-794.2754985187405
 20
-21.72756194766325
 30
0.0
 42
-0.3453056976020637
  0
VERTEX
  5
E4
  8
DRAFT
 10
-794.0195029204392
 20
-21.40108065533355
 30
0.0
 42
-0.1210102841094134
  0
VERTEX
  5
E5
  8
DRAFT
 10
-793.2212027784601
 20
-21.40108065533436
 30
0.0
 42
-0.3453056975992484
  0
VERTEX
  5
E6
  8
DRAFT
 10
-792.9652071801586
 20
-21.72756194766325
 30
0.0
  0
VERTEX
  5
E7
  8
DRAFT
 10
-792.9652071801581
 20
-22.11289962504074
 30
0.0
 42
-0.6681786379101827
  0
VERTEX
  5
E8
  8
DRAFT
 10
-793.0185542670704
 20
-22.13499671195338
 30
0.0
  0
VERTEX
  5
E9
  8
DRAFT
 10
-793.1861780492798
 20
-21.96737292974272
 30
0.0
 42
-0.1989123673771972
  0
VERTEX
  5
EA
  8
DRAFT
 10
-793.2777071801587
 20
-21.74640206062289
 30
0.0
  0
VERTEX
  5
EB
  8
DRAFT
 10
-793.2777071801587
 20
-21.72756194765824
 30
0.0
 42
1.0000000000204
  0
VERTEX
  5
EC
  8
DRAFT
 10
-793.3250772588982
 20
-21.72756194765824
 30
0.0
  0
VERTEX
  5
ED
  8
DRAFT
 10
-793.3250772588984
 20
-21.75560052437649
 30
0.0
 42
0.1989123673811138
  0
VERTEX
  5
EE
  8
DRAFT
 10
-793.2335481280195
 20
-21.97657139349762
 30
0.0
  0
VERTEX
  5
EF
  8
DRAFT
 10
-792.906964501802
 20
-22.30315501971617
 30
0.0
 42
-0.198912367382447
  0
VERTEX
  5
F0
  8
DRAFT
 10
-792.8703528494498
 20
-22.39154336736428
 30
0.0
 42
-0.1989123673755665
  0
VERTEX
  5
F1
  8
DRAFT
 10
-792.8337411970984
 20
-22.30315501971594
 30
0.0
  0
VERTEX
  5
F2
  8
DRAFT
 10
-792.5071575708806
 20
-21.97657139349777
 30
0.0
 42
0.1989123673804057
  0
VERTEX
  5
F3
  8
DRAFT
 10
-792.4156284400017
 20
-21.75560052437661
 30
0.0
  0
VERTEX
  5
F4
  8
DRAFT
 10
-792.415628440002
 20
-21.72756194765836
 30
0.0
 42
1.000000000034575
  0
VERTEX
  5
F5
  8
DRAFT
 10
-792.4629985187413
 20
-21.72756194765813
 30
0.0
  0
VERTEX
  5
F6
  8
DRAFT
 10
-792.4629985187416
 20
-21.74640206062278
 30
0.0
 42
-0.1989123673792118
  0
VERTEX
  5
F7
  8
DRAFT
 10
-792.5545276496205
 20
-21.96737292974299
 30
0.0
  0
VERTEX
  5
F8
  8
DRAFT
 10
-792.7221514318301
 20
-22.13499671195278
 30
0.0
 42
-0.66817863791639
  0
VERTEX
  5
F9
  8
DRAFT
 10
-792.7754985187428
 20
-22.11289962504085
 30
0.0
  0
VERTEX
  5
FA
  8
DRAFT
 10
-792.7754985187414
 20
-21.72756194766325
 30
0.0
 42
-0.3453056976023084
  0
VERTEX
  5
FB
  8
DRAFT
 10
-792.5195029204401
 20
-21.40108065533378
 30
0.0
 42
-0.1210102841100933
  0
VERTEX
  5
FC
  8
DRAFT
 10
-791.721202778461
 20
-21.40108065533441
 30
0.0
 42
-0.3453056975990327
  0
VERTEX
  5
FD
  8
DRAFT
 10
-791.4652071801595
 20
-21.72756194766337
 30
0.0
  0
VERTEX
  5
FE
  8
DRAFT
 10
-791.4652071801592
 20
-22.11289962504085
 30
0.0
 42
-0.6681786379104685
  0
VERTEX
  5
FF
  8
DRAFT
 10
-791.5185542670712
 20
-22.13499671195322
 30
0.0
  0
VERTEX
  5
100
  8
DRAFT
 10
-791.6861780492807
 20
-21.9673729297428
 30
0.0
 42
-0.198912367379018
  0
VERTEX
  5
101
  8
DRAFT
 10
-791.7777071801594
 20
-21.74640206062301
 30
0.0
  0
VERTEX
  5
102
  8
DRAFT
 10
-791.7777071801596
 20
-21.72756194765836
 30
0.0
 42
1.000000000056399
  0
VERTEX
  5
103
  8
DRAFT
 10
-791.8250772588993
 20
-21.72756194765836
 30
0.0
  0
VERTEX
  5
104
  8
DRAFT
 10
-791.8250772588993
 20
-21.7556005243766
 30
0.0
 42
0.1989123673794543
  0
VERTEX
  5
105
  8
DRAFT
 10
-791.7335481280205
 20
-21.97657139349783
 30
0.0
  0
VERTEX
  5
106
  8
DRAFT
 10
-791.4069645018029
 20
-22.30315501971629
 30
0.0
 42
-0.1989123673788021
  0
VERTEX
  5
107
  8
DRAFT
 10
-791.3703528494508
 20
-22.39154336736439
 30
0.0
  0
VERTEX
  5
108
  8
DRAFT
 10
-791.3703528494511
 20
-31.10921044920493
 30
0.0
 42
-0.1989123673760703
  0
VERTEX
  5
109
  8
DRAFT
 10
-791.4069645018028
 20
-31.19759879685309
 30
0.0
  0
VERTEX
  5
10A
  8
DRAFT
 10
-791.7335481280206
 20
-31.5241824230713
 30
0.0
 42
0.1989123673800714
  0
VERTEX
  5
10B
  8
DRAFT
 10
-791.8250772588995
 20
-31.74515329219226
 30
0.0
  0
VERTEX
  5
10C
  8
DRAFT
 10
-791.8250772588995
 20
-31.77319186891074
 30
0.0
 42
1.0000000000039
  0
VERTEX
  5
10D
  8
DRAFT
 10
-791.7777071801595
 20
-31.77319186891074
 30
0.0
  0
VERTEX
  5
10E
  8
DRAFT
 10
-791.7777071801597
 20
-31.75435175594631
 30
0.0
 42
-0.1989123673808346
  0
VERTEX
  5
10F
  8
DRAFT
 10
-791.686178049281
 20
-31.53338088682574
 30
0.0
  0
VERTEX
  5
110
  8
DRAFT
 10
-791.5185542670713
 20
-31.36575710461621
 30
0.0
 42
-0.6681786379045267
  0
VERTEX
  5
111
  8
DRAFT
 10
-791.4652071801584
 20
-31.38785419152824
 30
0.0
  0
VERTEX
  5
112
  8
DRAFT
 10
-791.4652071801598
 20
-31.77319186890573
 30
0.0
 42
-0.3453056976028162
  0
VERTEX
  5
113
  8
DRAFT
 10
-791.7212027784612
 20
-32.09967316123437
 30
0.0
 42
-0.121010284109454
  0
VERTEX
  5
114
  8
DRAFT
 10
-792.5195029204402
 20
-32.09967316123482
 30
0.0
 42
-0.3453056976014597
  0
VERTEX
  5
115
  8
DRAFT
 10
-792.7754985187411
 20
-31.77319186890573
 30
0.0
  0
VERTEX
  5
116
  8
DRAFT
 10
-792.7754985187424
 20
-31.38785419152813
 30
0.0
 42
-0.6681786379260648
  0
VERTEX
  5
117
  8
DRAFT
 10
-792.7221514318296
 20
-31.36575710461554
 30
0.0
  0
VERTEX
  5
118
  8
DRAFT
 10
-792.5545276496205
 20
-31.53338088682627
 30
0.0
 42
-0.1989123673792643
  0
VERTEX
  5
119
  8
DRAFT
 10
-792.4629985187421
 20
-31.7543517559462
 30
0.0
  0
VERTEX
  5
11A
  8
DRAFT
 10
-792.4629985187419
 20
-31.77319186891074
 30
0.0
 42
1.000000000049575
  0
VERTEX
  5
11B
  8
DRAFT
 10
-792.4156284400019
 20
-31.77319186891096
 30
0.0
  0
VERTEX
  5
11C
  8
DRAFT
 10
-792.4156284400019
 20
-31.74515329219249
 30
0.0
 42
0.1989123673777362
  0
VERTEX
  5
11D
  8
DRAFT
 10
-792.5071575708808
 20
-31.5241824230712
 30
0.0
  0
VERTEX
  5
11E
  8
DRAFT
 10
-792.8337411970983
 20
-31.19759879685269
 30
0.0
 42
-0.1989123673776503
  0
VERTEX
  5
11F
  8
DRAFT
 10
-792.8703528494501
 20
-31.10921044920493
 30
0.0
 42
-0.19891236737345
  0
VERTEX
  5
120
  8
DRAFT
 10
-792.9069645018018
 20
-31.1975987968532
 30
0.0
  0
VERTEX
  5
121
  8
DRAFT
 10
-793.2335481280197
 20
-31.5241824230712
 30
0.0
 42
0.1989123673772593
  0
VERTEX
  5
122
  8
DRAFT
 10
-793.3250772588984
 20
-31.74515329219214
 30
0.0
  0
VERTEX
  5
123
  8
DRAFT
 10
-793.3250772588985
 20
-31.77319186891062
 30
0.0
 42
1.0000000000135
  0
VERTEX
  5
124
  8
DRAFT
 10
-793.2777071801586
 20
-31.77319186891062
 30
0.0
  0
VERTEX
  5
125
  8
DRAFT
 10
-793.2777071801588
 20
-31.7543517559462
 30
0.0
 42
-0.1989123673792618
  0
VERTEX
  5
126
  8
DRAFT
 10
-793.18617804928
 20
-31.53338088682564
 30
0.0
  0
VERTEX
  5
127
  8
DRAFT
 10
-793.0185542670704
 20
-31.3657571046161
 30
0.0
 42
-0.6681786379247877
  0
VERTEX
  5
128
  8
DRAFT
 10
-792.9652071801579
 20
-31.38785419152813
 30
0.0
  0
VERTEX
  5
129
  8
DRAFT
 10
-792.9652071801589
 20
-31.77319186890562
 30
0.0
 42
-0.3453056976010593
  0
VERTEX
  5
12A
  8
DRAFT
 10
-793.2212027784605
 20
-32.09967316123493
 30
0.0
 42
-0.121010284110259
  0
VERTEX
  5
12B
  8
DRAFT
 10
-794.0195029204393
 20
-32.09967316123483
 30
0.0
 42
-0.3453056976001724
  0
VERTEX
  5
12C
  8
DRAFT
 10
-794.2754985187402
 20
-31.77319186890562
 30
0.0
  0
VERTEX
  5
12D
  8
DRAFT
 10
-794.2754985187413
 20
-31.38785419152813
 30
0.0
 42
-0.6681786379057997
  0
VERTEX
  5
12E
  8
DRAFT
 10
-794.2221514318295
 20
-31.36575710461603
 30
0.0
  0
VERTEX
  5
12F
  8
DRAFT
 10
-794.0545276496197
 20
-31.53338088682615
 30
0.0
 42
-0.198912367378631
  0
VERTEX
  5
130
  8
DRAFT
 10
-793.9629985187413
 20
-31.7543517559462
 30
0.0
  0
VERTEX
  5
131
  8
DRAFT
 10
-793.962998518741
 20
-31.77319186891062
 30
0.0
 42
1.000000000049575
  0
VERTEX
  5
132
  8
DRAFT
 10
-793.915628440001
 20
-31.77319186891085
 30
0.0
  0
VERTEX
  5
133
  8
DRAFT
 10
-793.915628440001
 20
-31.74515329219238
 30
0.0
 42
0.1989123673804989
  0
VERTEX
  5
134
  8
DRAFT
 10
-794.0071575708798
 20
-31.524182423071
 30
0.0
  0
VERTEX
  5
135
  8
DRAFT
 10
-794.3337411970974
 20
-31.19759879685271
 30
0.0
 42
-0.1989123673728951
  0
VERTEX
  5
136
  8
DRAFT
 10
-794.3703528494494
 20
-31.10921044920481
 30
0.0
  0
VERTEX
  5
137
  8
DRAFT
 10
-794.3703528494492
 20
-22.39154336736428
 30
0.0
 42
-0.1989123673829384
  0
SEQEND
  5
138
  8
DRAFT
  0
LINE
  5
139
  8
DRAFT
 10
-792.8703528494502
 20
-22.39154310955156
 30
0.0
 11
-792.8703528494503
 21
-31.10921044920504
 31
0.0
  0
POLYLINE
  5
13A
  8
DRAFT
 66
     1
 10
0.0
 20
0.0
 30
0.0
 70
     1
  0
VERTEX
  5
13B
  8
DRAFT
 10
-791.8447622982695
 20
-22.28858556970565
 30
0.0
  0
VERTEX
  5
13C
  8
DRAFT
 10
-791.698846943939
 20
-22.28858556970519
 30
0.0
 42
-0.4142135623575597
  0
VERTEX
  5
13D
  8
DRAFT
 10
-791.6675969439391
 20
-22.31983556970474
 30
0.0
  0
VERTEX
  5
13E
  8
DRAFT
 10
-791.667596943939
 20
-22.90694186891798
 30
0.0
 42
-0.4142135623740637
  0
VERTEX
  5
13F
  8
DRAFT
 10
-791.698846943939
 20
-22.93819186891824
 30
0.0
  0
VERTEX
  5
140
  8
DRAFT
 10
-791.8447622982695
 20
-22.93819186891798
 30
0.0
 42
-1.000000000002931
  0
VERTEX
  5
141
  8
DRAFT
 10
-791.8447622982695
 20
-22.89819186891814
 30
0.0
  0
VERTEX
  5
142
  8
DRAFT
 10
-791.7388469439387
 20
-22.89819186891793
 30
0.0
 42
0.4142135623887365
  0
VERTEX
  5
143
  8
DRAFT
 10
-791.707596943939
 20
-22.86694186891802
 30
0.0
  0
VERTEX
  5
144
  8
DRAFT
 10
-791.7075969439392
 20
-22.35983556970515
 30
0.0
 42
0.4142135623875684
  0
VERTEX
  5
145
  8
DRAFT
 10
-791.7388469439392
 20
-22.3285855697049
 30
0.0
  0
VERTEX
  5
146
  8
DRAFT
 10
-791.8447622982695
 20
-22.32858556970515
 30
0.0
 42
-0.9999999999999999
  0
SEQEND
  5
147
  8
DRAFT
  0
POLYLINE
  5
148
  8
DRAFT
 66
     1
 10
0.0
 20
0.0
 30
0.0
 70
     1
  0
VERTEX
  5
149
  8
DRAFT
 10
-792.3959434006316
 20
-22.28858556970565
 30
0.0
  0
VERTEX
  5
14A
  8
DRAFT
 10
-792.5418587549622
 20
-22.28858556970528
 30
0.0
 42
0.4142135623831674
  0
VERTEX
  5
14B
  8
DRAFT
 10
-792.5731087549619
 20
-22.31983556970542
 30
0.0
  0
VERTEX
  5
14C
  8
DRAFT
 10
-792.5731087549622
 20
-22.90694186891798
 30
0.0
 42
0.4142135623792798
  0
VERTEX
  5
14D
  8
DRAFT
 10
-792.5418587549622
 20
-22.93819186891788
 30
0.0
  0
VERTEX
  5
14E
  8
DRAFT
 10
-792.3959434006316
 20
-22.93819186891798
 30
0.0
 42
0.999999999985789
  0
VERTEX
  5
14F
  8
DRAFT
 10
-792.3959434006315
 20
-22.89819186891762
 30
0.0
  0
VERTEX
  5
150
  8
DRAFT
 10
-792.5018587549625
 20
-22.89819186891808
 30
0.0
 42
-0.4142135623564176
  0
VERTEX
  5
151
  8
DRAFT
 10
-792.5331087549628
 20
-22.86694186891802
 30
0.0
  0
VERTEX
  5
152
  8
DRAFT
 10
-792.533108754962
 20
-22.35983556970515
 30
0.0
 42
-0.4142135623606379
  0
VERTEX
  5
153
  8
DRAFT
 10
-792.501858754962
 20
-22.32858556970574
 30
0.0
  0
VERTEX
  5
154
  8
DRAFT
 10
-792.3959434006316
 20
-22.32858556970515
 30
0.0
 42
1.000000000056843
  0
SEQEND
  5
155
  8
DRAFT
  0
POLYLINE
  5
156
  8
DRAFT
 66
     1
 10
0.0
 20
0.0
 30
0.0
 70
     1
  0
VERTEX
  5
157
  8
DRAFT
 10
-793.3447622982686
 20
-22.28858556970553
 30
0.0
  0
VERTEX
  5
158
  8
DRAFT
 10
-793.1988469439381
 20
-22.28858556970508
 30
0.0
 42
-0.4142135623543979
  0
VERTEX
  5
159
  8
DRAFT
 10
-793.1675969439385
 20
-22.31983556970485
 30
0.0
  0
VERTEX
  5
15A
  8
DRAFT
 10
-793.1675969439381
 20
-22.90694186891787
 30
0.0
 42
-0.4142135623723014
  0
VERTEX
  5
15B
  8
DRAFT
 10
-793.1988469439381
 20
-22.93819186891818
 30
0.0
  0
VERTEX
  5
15C
  8
DRAFT
 10
-793.3447622982686
 20
-22.93819186891787
 30
0.0
 42
-0.9999999999943155
  0
VERTEX
  5
15D
  8
DRAFT
 10
-793.3447622982686
 20
-22.89819186891773
 30
0.0
  0
VERTEX
  5
15E
  8
DRAFT
 10
-793.2388469439378
 20
-22.89819186891793
 30
0.0
 42
0.4142135623787755
  0
VERTEX
  5
15F
  8
DRAFT
 10
-793.2075969439383
 20
-22.86694186891791
 30
0.0
  0
VERTEX
  5
160
  8
DRAFT
 10
-793.2075969439381
 20
-22.35983556970504
 30
0.0
 42
0.4142135623677161
  0
VERTEX
  5
161
  8
DRAFT
 10
-793.2388469439381
 20
-22.32858556970479
 30
0.0
  0
VERTEX
  5
162
  8
DRAFT
 10
-793.3447622982686
 20
-22.32858556970504
 30
0.0
 42
-1.000000000011369
  0
SEQEND
  5
163
  8
DRAFT
  0
POLYLINE
  5
164
  8
DRAFT
 66
     1
 10
0.0
 20
0.0
 30
0.0
 70
     1
  0
VERTEX
  5
165
  8
DRAFT
 10
-793.8959434006307
 20
-22.28858556970553
 30
0.0
  0
VERTEX
  5
166
  8
DRAFT
 10
-794.0418587549613
 20
-22.28858556970509
 30
0.0
 42
0.4142135623666667
  0
VERTEX
  5
167
  8
DRAFT
 10
-794.0731087549617
 20
-22.3198355697053
 30
0.0
  0
VERTEX
  5
168
  8
DRAFT
 10
-794.0731087549613
 20
-22.90694186891787
 30
0.0
 42
0.4142135623882751
  0
VERTEX
  5
169
  8
DRAFT
 10
-794.0418587549613
 20
-22.93819186891765
 30
0.0
  0
VERTEX
  5
16A
  8
DRAFT
 10
-793.8959434006307
 20
-22.93819186891787
 30
0.0
 42
0.9999999999744204
  0
VERTEX
  5
16B
  8
DRAFT
 10
-793.8959434006306
 20
-22.89819186891796
 30
0.0
  0
VERTEX
  5
16C
  8
DRAFT
 10
-794.0018587549615
 20
-22.89819186891793
 30
0.0
 42
-0.4142135623642997
  0
VERTEX
  5
16D
  8
DRAFT
 10
-794.0331087549613
 20
-22.86694186891791
 30
0.0
  0
VERTEX
  5
16E
  8
DRAFT
 10
-794.0331087549611
 20
-22.35983556970504
 30
0.0
 42
-0.4142135623638362
  0
VERTEX
  5
16F
  8
DRAFT
 10
-794.0018587549611
 20
-22.32858556970524
 30
0.0
  0
VERTEX
  5
170
  8
DRAFT
 10
-793.8959434006307
 20
-22.32858556970504
 30
0.0
 42
1.000000000045564
  0
SEQEND
  5
171
  8
DRAFT
  0
POLYLINE
  5
172
  8
DRAFT
 66
     1
 10
0.0
 20
0.0
 30
0.0
 70
     1
  0
VERTEX
  5
173
  8
DRAFT
 10
-791.8447622982696
 20
-31.21216824686345
 30
0.0
  0
VERTEX
  5
174
  8
DRAFT
 10
-791.6988469439391
 20
-31.21216824686387
 30
0.0
 42
0.4142135623606853
  0
VERTEX
  5
175
  8
DRAFT
 10
-791.6675969439392
 20
-31.1809182468639
 30
0.0
  0
VERTEX
  5
176
  8
DRAFT
 10
-791.6675969439391
 20
-30.59381194765111
 30
0.0
 42
0.4142135623758949
  0
VERTEX
  5
177
  8
DRAFT
 10
-791.6988469439391
 20
-30.56256194765075
 30
0.0
  0
VERTEX
  5
178
  8
DRAFT
 10
-791.8447622982696
 20
-30.5625619476511
 30
0.0
 42
0.999999999985789
  0
VERTEX
  5
179
  8
DRAFT
 10
-791.8447622982696
 20
-30.60256194765138
 30
0.0
  0
VERTEX
  5
17A
  8
DRAFT
 10
-791.7388469439388
 20
-30.60256194765108
 30
0.0
 42
-0.4142135623717876
  0
VERTEX
  5
17B
  8
DRAFT
 10
-791.7075969439394
 20
-30.63381194765108
 30
0.0
  0
VERTEX
  5
17C
  8
DRAFT
 10
-791.7075969439393
 20
-31.14091824686394
 30
0.0
 42
-0.4142135623564638
  0
VERTEX
  5
17D
  8
DRAFT
 10
-791.7388469439393
 20
-31.17216824686398
 30
0.0
  0
VERTEX
  5
17E
  8
DRAFT
 10
-791.8447622982696
 20
-31.17216824686394
 30
0.0
 42
1.000000000011457
  0
SEQEND
  5
17F
  8
DRAFT
  0
POLYLINE
  5
180
  8
DRAFT
 66
     1
 10
0.0
 20
0.0
 30
0.0
 70
     1
  0
VERTEX
  5
181
  8
DRAFT
 10
-792.3959434006317
 20
-31.2121682468639
 30
0.0
  0
VERTEX
  5
182
  8
DRAFT
 10
-792.5418587549623
 20
-31.2121682468639
 30
0.0
 42
-0.4142135623695388
  0
VERTEX
  5
183
  8
DRAFT
 10
-792.5731087549618
 20
-31.1809182468639
 30
0.0
  0
VERTEX
  5
184
  8
DRAFT
 10
-792.5731087549623
 20
-30.59381194765111
 30
0.0
 42
-0.4142135623774982
  0
VERTEX
  5
185
  8
DRAFT
 10
-792.5418587549623
 20
-30.56256194765064
 30
0.0
  0
VERTEX
  5
186
  8
DRAFT
 10
-792.3959434006317
 20
-30.5625619476511
 30
0.0
 42
-0.9999999999829469
  0
VERTEX
  5
187
  8
DRAFT
 10
-792.3959434006316
 20
-30.60256194765115
 30
0.0
  0
VERTEX
  5
188
  8
DRAFT
 10
-792.5018587549625
 20
-30.60256194765113
 30
0.0
 42
0.4142135623621922
  0
VERTEX
  5
189
  8
DRAFT
 10
-792.5331087549623
 20
-30.63381194765108
 30
0.0
  0
VERTEX
  5
18A
  8
DRAFT
 10
-792.5331087549621
 20
-31.14091824686394
 30
0.0
 42
0.4142135623610631
  0
VERTEX
  5
18B
  8
DRAFT
 10
-792.5018587549621
 20
-31.17216824686376
 30
0.0
  0
VERTEX
  5
18C
  8
DRAFT
 10
-792.3959434006317
 20
-31.17216824686394
 30
0.0
 42
-1.00000000001128
  0
SEQEND
  5
18D
  8
DRAFT
  0
POLYLINE
  5
18E
  8
DRAFT
 66
     1
 10
0.0
 20
0.0
 30
0.0
 70
     1
  0
VERTEX
  5
18F
  8
DRAFT
 10
-793.3447622982687
 20
-31.21216824686334
 30
0.0
  0
VERTEX
  5
190
  8
DRAFT
 10
-793.1988469439382
 20
-31.21216824686374
 30
0.0
 42
0.4142135623642235
  0
VERTEX
  5
191
  8
DRAFT
 10
-793.1675969439382
 20
-31.18091824686379
 30
0.0
  0
VERTEX
  5
192
  8
DRAFT
 10
-793.1675969439382
 20
-30.593811947651
 30
0.0
 42
0.4142135623634852
  0
VERTEX
  5
193
  8
DRAFT
 10
-793.1988469439382
 20
-30.56256194765064
 30
0.0
  0
VERTEX
  5
194
  8
DRAFT
 10
-793.3447622982687
 20
-30.56256194765099
 30
0.0
 42
1.0000000000143
  0
VERTEX
  5
195
  8
DRAFT
 10
-793.3447622982687
 20
-30.60256194765069
 30
0.0
  0
VERTEX
  5
196
  8
DRAFT
 10
-793.2388469439379
 20
-30.60256194765096
 30
0.0
 42
-0.4142135623693505
  0
VERTEX
  5
197
  8
DRAFT
 10
-793.2075969439384
 20
-30.63381194765096
 30
0.0
  0
VERTEX
  5
198
  8
DRAFT
 10
-793.2075969439384
 20
-31.14091824686383
 30
0.0
 42
-0.414213562384529
  0
VERTEX
  5
199
  8
DRAFT
 10
-793.2388469439384
 20
-31.17216824686409
 30
0.0
  0
VERTEX
  5
19A
  8
DRAFT
 10
-793.3447622982687
 20
-31.17216824686383
 30
0.0
 42
1.000000000037037
  0
SEQEND
  5
19B
  8
DRAFT
  0
POLYLINE
  5
19C
  8
DRAFT
 66
     1
 10
0.0
 20
0.0
 30
0.0
 70
     1
  0
VERTEX
  5
19D
  8
DRAFT
 10
-793.8959434006308
 20
-31.21216824686379
 30
0.0
  0
VERTEX
  5
19E
  8
DRAFT
 10
-794.0418587549614
 20
-31.21216824686379
 30
0.0
 42
-0.4142135623745078
  0
VERTEX
  5
19F
  8
DRAFT
 10
-794.0731087549613
 20
-31.18091824686379
 30
0.0
  0
VERTEX
  5
1A0
  8
DRAFT
 10
-794.0731087549614
 20
-30.593811947651
 30
0.0
 42
-0.4142135623479529
  0
VERTEX
  5
1A1
  8
DRAFT
 10
-794.0418587549614
 20
-30.56256194765091
 30
0.0
  0
VERTEX
  5
1A2
  8
DRAFT
 10
-793.8959434006308
 20
-30.56256194765099
 30
0.0
 42
-0.9999999999545254
  0
VERTEX
  5
1A3
  8
DRAFT
 10
-793.8959434006308
 20
-30.60256194765059
 30
0.0
  0
VERTEX
  5
1A4
  8
DRAFT
 10
-794.0018587549616
 20
-30.60256194765105
 30
0.0
 42
0.4142135623769565
  0
VERTEX
  5
1A5
  8
DRAFT
 10
-794.0331087549611
 20
-30.63381194765096
 30
0.0
  0
VERTEX
  5
1A6
  8
DRAFT
 10
-794.0331087549612
 20
-31.14091824686383
 30
0.0
 42
0.4142135623610631
  0
VERTEX
  5
1A7
  8
DRAFT
 10
-794.0018587549612
 20
-31.17216824686365
 30
0.0
  0
VERTEX
  5
1A8
  8
DRAFT
 10
-793.8959434006308
 20
-31.17216824686383
 30
0.0
 42
-1.000000000008527
  0
SEQEND
  5
1A9
  8
DRAFT
  0
POLYLINE
  5
1AA
  8
DRAFT
 66
     1
 10
0.0
 20
0.0
 30
0.0
  0
VERTEX
  5
1AB
  8
DRAFT
 10
-794.517087250869
 20
-33.86938262272596
 30
0.0
 42
-0.1989123673789009
  0
VERTEX
  5
1AC
  8
DRAFT
 10
-794.5536989032207
 20
-33.95777097037411
 30
0.0
  0
VERTEX
  5
1AD
  8
DRAFT
 10
-794.8802825294385
 20
-34.28435459659238
 30
0.0
 42
0.1989123673800151
  0
VERTEX
  5
1AE
  8
DRAFT
 10
-794.9718116603173
 20
-34.50532546571328
 30
0.0
  0
VERTEX
  5
1AF
  8
DRAFT
 10
-794.9718116603174
 20
-34.53336404243176
 30
0.0
 42
1.00000000000855
  0
VERTEX
  5
1B0
  8
DRAFT
 10
-794.9244415815774
 20
-34.53336404243176
 30
0.0
  0
VERTEX
  5
1B1
  8
DRAFT
 10
-794.9244415815775
 20
-34.51452392946734
 30
0.0
 42
-0.1989123673801184
  0
VERTEX
  5
1B2
  8
DRAFT
 10
-794.8329124506989
 20
-34.29355306034672
 30
0.0
  0
VERTEX
  5
1B3
  8
DRAFT
 10
-794.6652886684892
 20
-34.12592927813724
 30
0.0
 42
-0.6681786379077271
  0
VERTEX
  5
1B4
  8
DRAFT
 10
-794.6119415815766
 20
-34.14802636504927
 30
0.0
  0
VERTEX
  5
1B5
  8
DRAFT
 10
-794.6119415815778
 20
-34.53336404242676
 30
0.0
 42
-0.3453056976018875
  0
VERTEX
  5
1B6
  8
DRAFT
 10
-794.8679371798793
 20
-34.85984533475535
 30
0.0
 42
-0.1210102841095928
  0
VERTEX
  5
1B7
  8
DRAFT
 10
-795.6662373218581
 20
-34.85984533475597
 30
0.0
 42
-0.3453056976011589
  0
VERTEX
  5
1B8
  8
DRAFT
 10
-795.9222329201591
 20
-34.53336404242676
 30
0.0
  0
VERTEX
  5
1B9
  8
DRAFT
 10
-795.9222329201602
 20
-34.14802636504916
 30
0.0
 42
-0.6681786379235921
  0
VERTEX
  5
1BA
  8
DRAFT
 10
-795.8688858332475
 20
-34.12592927813661
 30
0.0
  0
VERTEX
  5
1BB
  8
DRAFT
 10
-795.7012620510385
 20
-34.29355306034731
 30
0.0
 42
-0.1989123673784922
  0
VERTEX
  5
1BC
  8
DRAFT
 10
-795.6097329201599
 20
-34.51452392946723
 30
0.0
  0
VERTEX
  5
1BD
  8
DRAFT
 10
-795.6097329201598
 20
-34.53336404243176
 30
0.0
 42
1.000000000033
  0
VERTEX
  5
1BE
  8
DRAFT
 10
-795.5623628414196
 20
-34.53336404243199
 30
0.0
  0
VERTEX
  5
1BF
  8
DRAFT
 10
-795.5623628414198
 20
-34.50532546571352
 30
0.0
 42
0.1989123673806558
  0
VERTEX
  5
1C0
  8
DRAFT
 10
-795.6538919722987
 20
-34.28435459659223
 30
0.0
  0
VERTEX
  5
1C1
  8
DRAFT
 10
-795.9804755985163
 20
-33.95777097037374
 30
0.0
 42
-0.1989123673769816
  0
VERTEX
  5
1C2
  8
DRAFT
 10
-796.0170872508683
 20
-33.86938262272596
 30
0.0
 42
-0.1989123673774595
  0
VERTEX
  5
1C3
  8
DRAFT
 10
-796.0536989032197
 20
-33.95777097037423
 30
0.0
  0
VERTEX
  5
1C4
  8
DRAFT
 10
-796.3802825294376
 20
-34.28435459659222
 30
0.0
 42
0.198912367378778
  0
VERTEX
  5
1C5
  8
DRAFT
 10
-796.4718116603162
 20
-34.50532546571318
 30
0.0
  0
VERTEX
  5
1C6
  8
DRAFT
 10
-796.4718116603165
 20
-34.53336404243165
 30
0.0
 42
1.00000000003735
  0
VERTEX
  5
1C7
  8
DRAFT
 10
-796.4244415815765
 20
-34.53336404243165
 30
0.0
  0
VERTEX
  5
1C8
  8
DRAFT
 10
-796.4244415815767
 20
-34.51452392946722
 30
0.0
 42
-0.1989123673799086
  0
VERTEX
  5
1C9
  8
DRAFT
 10
-796.332912450698
 20
-34.29355306034666
 30
0.0
  0
VERTEX
  5
1CA
  8
DRAFT
 10
-796.1652886684883
 20
-34.12592927813713
 30
0.0
 42
-0.6681786379254352
  0
VERTEX
  5
1CB
  8
DRAFT
 10
-796.1119415815762
 20
-34.14802636504916
 30
0.0
  0
VERTEX
  5
1CC
  8
DRAFT
 10
-796.1119415815768
 20
-34.53336404242665
 30
0.0
 42
-0.3453056976007053
  0
VERTEX
  5
1CD
  8
DRAFT
 10
-796.3679371798784
 20
-34.85984533475586
 30
0.0
 42
-0.1210102841102794
  0
VERTEX
  5
1CE
  8
DRAFT
 10
-797.1662373218574
 20
-34.85984533475587
 30
0.0
 42
-0.3453056976002822
  0
VERTEX
  5
1CF
  8
DRAFT
 10
-797.4222329201582
 20
-34.53336404242664
 30
0.0
  0
VERTEX
  5
1D0
  8
DRAFT
 10
-797.4222329201592
 20
-34.14802636504916
 30
0.0
 42
-0.6681786379200665
  0
VERTEX
  5
1D1
  8
DRAFT
 10
-797.3688858332472
 20
-34.12592927813685
 30
0.0
  0
VERTEX
  5
1D2
  8
DRAFT
 10
-797.2012620510376
 20
-34.29355306034718
 30
0.0
 42
-0.1989123673796097
  0
VERTEX
  5
1D3
  8
DRAFT
 10
-797.1097329201592
 20
-34.51452392946723
 30
0.0
  0
VERTEX
  5
1D4
  8
DRAFT
 10
-797.1097329201589
 20
-34.53336404243165
 30
0.0
 42
1.000000000037349
  0
VERTEX
  5
1D5
  8
DRAFT
 10
-797.0623628414196
 20
-34.53336404243188
 30
0.0
  0
VERTEX
  5
1D6
  8
DRAFT
 10
-797.0623628414189
 20
-34.5053254657134
 30
0.0
 42
0.1989123673795839
  0
VERTEX
  5
1D7
  8
DRAFT
 10
-797.1538919722977
 20
-34.284354596592
 30
0.0
  0
VERTEX
  5
1D8
  8
DRAFT
 10
-797.4804755985153
 20
-33.95777097037374
 30
0.0
 42
-0.1989123673729111
  0
VERTEX
  5
1D9
  8
DRAFT
 10
-797.5170872508673
 20
-33.86938262272584
 30
0.0
  0
SEQEND
  5
1DA
  8
DRAFT
  0
POLYLINE
  5
1DB
  8
DRAFT
 66
     1
 10
0.0
 20
0.0
 30
0.0
  0
VERTEX
  5
1DC
  8
DRAFT
 10
-797.5170872508669
 20
-14.3565205079983
 30
0.0
 42
-0.1989123673826477
  0
VERTEX
  5
1DD
  8
DRAFT
 10
-797.4804755985148
 20
-14.26813216035056
 30
0.0
  0
VERTEX
  5
1DE
  8
DRAFT
 10
-797.1538919722975
 20
-13.9415485341319
 30
0.0
 42
0.1989123673795982
  0
VERTEX
  5
1DF
  8
DRAFT
 10
-797.0623628414185
 20
-13.72057766501074
 30
0.0
  0
VERTEX
  5
1E0
  8
DRAFT
 10
-797.0623628414183
 20
-13.69253908829226
 30
0.0
 42
1.000000000021
  0
VERTEX
  5
1E1
  8
DRAFT
 10
-797.1097329201581
 20
-13.69253908829249
 30
0.0
  0
VERTEX
  5
1E2
  8
DRAFT
 10
-797.1097329201584
 20
-13.71137920125715
 30
0.0
 42
-0.1989123673756645
  0
VERTEX
  5
1E3
  8
DRAFT
 10
-797.2012620510372
 20
-13.93235007037693
 30
0.0
  0
VERTEX
  5
1E4
  8
DRAFT
 10
-797.368885833247
 20
-14.09997385258696
 30
0.0
 42
-0.6681786379207052
  0
VERTEX
  5
1E5
  8
DRAFT
 10
-797.4222329201584
 20
-14.07787676567499
 30
0.0
  0
VERTEX
  5
1E6
  8
DRAFT
 10
-797.4222329201583
 20
-13.69253908829749
 30
0.0
 42
-0.3453056976013366
  0
VERTEX
  5
1E7
  8
DRAFT
 10
-797.1662373218567
 20
-13.36605779596824
 30
0.0
 42
-0.1210102841103337
  0
VERTEX
  5
1E8
  8
DRAFT
 10
-796.3679371798778
 20
-13.36605779596843
 30
0.0
 42
-0.3453056976007458
  0
VERTEX
  5
1E9
  8
DRAFT
 10
-796.1119415815764
 20
-13.6925390882975
 30
0.0
  0
VERTEX
  5
1EA
  8
DRAFT
 10
-796.1119415815758
 20
-14.07787676567499
 30
0.0
 42
-0.6681786379168454
  0
VERTEX
  5
1EB
  8
DRAFT
 10
-796.1652886684881
 20
-14.09997385258752
 30
0.0
  0
VERTEX
  5
1EC
  8
DRAFT
 10
-796.3329124506976
 20
-13.93235007037694
 30
0.0
 42
-0.1989123673771156
  0
VERTEX
  5
1ED
  8
DRAFT
 10
-796.4244415815765
 20
-13.71137920125691
 30
0.0
  0
VERTEX
  5
1EE
  8
DRAFT
 10
-796.4244415815763
 20
-13.69253908829226
 30
0.0
 42
1.000000000042599
  0
VERTEX
  5
1EF
  8
DRAFT
 10
-796.471811660316
 20
-13.69253908829226
 30
0.0
  0
VERTEX
  5
1F0
  8
DRAFT
 10
-796.4718116603162
 20
-13.72057766501074
 30
0.0
 42
0.198912367380101
  0
VERTEX
  5
1F1
  8
DRAFT
 10
-796.3802825294374
 20
-13.94154853413188
 30
0.0
  0
VERTEX
  5
1F2
  8
DRAFT
 10
-796.0536989032197
 20
-14.2681321603502
 30
0.0
 42
-0.1989123673798246
  0
VERTEX
  5
1F3
  8
DRAFT
 10
-796.0170872508679
 20
-14.35652050799853
 30
0.0
 42
-0.1989123673793005
  0
VERTEX
  5
1F4
  8
DRAFT
 10
-795.9804755985157
 20
-14.26813216035087
 30
0.0
  0
VERTEX
  5
1F5
  8
DRAFT
 10
-795.6538919722984
 20
-13.94154853413204
 30
0.0
 42
0.1989123673806465
  0
VERTEX
  5
1F6
  8
DRAFT
 10
-795.5623628414196
 20
-13.72057766501086
 30
0.0
  0
VERTEX
  5
1F7
  8
DRAFT
 10
-795.5623628414193
 20
-13.69253908829238
 30
0.0
 42
1.000000000035512
  0
VERTEX
  5
1F8
  8
DRAFT
 10
-795.6097329201585
 20
-13.69253908829261
 30
0.0
  0
VERTEX
  5
1F9
  8
DRAFT
 10
-795.6097329201592
 20
-13.71137920125726
 30
0.0
 42
-0.1989123673788257
  0
VERTEX
  5
1FA
  8
DRAFT
 10
-795.7012620510382
 20
-13.93235007037692
 30
0.0
  0
VERTEX
  5
1FB
  8
DRAFT
 10
-795.8688858332478
 20
-14.09997385258717
 30
0.0
 42
-0.6681786379441105
  0
VERTEX
  5
1FC
  8
DRAFT
 10
-795.9222329201589
 20
-14.0778767656751
 30
0.0
  0
VERTEX
  5
1FD
  8
DRAFT
 10
-795.9222329201592
 20
-13.69253908829749
 30
0.0
 42
-0.3453056976016685
  0
VERTEX
  5
1FE
  8
DRAFT
 10
-795.6662373218576
 20
-13.36605779596829
 30
0.0
 42
-0.1210102841096675
  0
VERTEX
  5
1FF
  8
DRAFT
 10
-794.8679371798786
 20
-13.36605779596842
 30
0.0
 42
-0.3453056976002323
  0
VERTEX
  5
200
  8
DRAFT
 10
-794.6119415815771
 20
-13.69253908829761
 30
0.0
  0
VERTEX
  5
201
  8
DRAFT
 10
-794.6119415815767
 20
-14.0778767656751
 30
0.0
 42
-0.6681786379332176
  0
VERTEX
  5
202
  8
DRAFT
 10
-794.6652886684889
 20
-14.09997385258718
 30
0.0
  0
VERTEX
  5
203
  8
DRAFT
 10
-794.8329124506985
 20
-13.93235007037706
 30
0.0
 42
-0.1989123673767313
  0
VERTEX
  5
204
  8
DRAFT
 10
-794.9244415815773
 20
-13.71137920125703
 30
0.0
  0
VERTEX
  5
205
  8
DRAFT
 10
-794.9244415815773
 20
-13.69253908829238
 30
0.0
 42
1.0000000000162
  0
VERTEX
  5
206
  8
DRAFT
 10
-794.9718116603168
 20
-13.69253908829238
 30
0.0
  0
VERTEX
  5
207
  8
DRAFT
 10
-794.971811660317
 20
-13.72057766501085
 30
0.0
 42
0.1989123673798419
  0
VERTEX
  5
208
  8
DRAFT
 10
-794.8802825294382
 20
-13.94154853413203
 30
0.0
  0
VERTEX
  5
209
  8
DRAFT
 10
-794.5536989032206
 20
-14.26813216035031
 30
0.0
 42
-0.1989123673836512
  0
VERTEX
  5
20A
  8
DRAFT
 10
-794.5170872508692
 20
-14.35652050799864
 30
0.0
  0
SEQEND
  5
20B
  8
DRAFT
  0
POLYLINE
  5
20C
  8
DRAFT
 66
     1
 10
0.0
 20
0.0
 30
0.0
  0
VERTEX
  5
20D
  8
DRAFT
 10
-794.5170872508688
 20
-23.07418758983919
 30
0.0
 42
-0.198912367373578
  0
VERTEX
  5
20E
  8
DRAFT
 10
-794.5536989032207
 20
-23.1625759374871
 30
0.0
  0
VERTEX
  5
20F
  8
DRAFT
 10
-794.8802825294383
 20
-23.48915956370557
 30
0.0
 42
0.1989123673811705
  0
VERTEX
  5
210
  8
DRAFT
 10
-794.9718116603173
 20
-23.71013043282674
 30
0.0
  0
VERTEX
  5
211
  8
DRAFT
 10
-794.9718116603173
 20
-23.73816900954522
 30
0.0
 42
1.0000000000246
  0
VERTEX
  5
212
  8
DRAFT
 10
-794.9244415815773
 20
-23.73816900954544
 30
0.0
  0
VERTEX
  5
213
  8
DRAFT
 10
-794.9244415815775
 20
-23.71932889658034
 30
0.0
 42
-0.1989123673795286
  0
VERTEX
  5
214
  8
DRAFT
 10
-794.8329124506985
 20
-23.49835802746033
 30
0.0
  0
VERTEX
  5
215
  8
DRAFT
 10
-794.665288668489
 20
-23.33073424525047
 30
0.0
 42
-0.6681786379318418
  0
VERTEX
  5
216
  8
DRAFT
 10
-794.6119415815772
 20
-23.35283133216249
 30
0.0
  0
VERTEX
  5
217
  8
DRAFT
 10
-794.6119415815775
 20
-23.73816900953999
 30
0.0
 42
-0.3453056976021635
  0
VERTEX
  5
218
  8
DRAFT
 10
-794.8679371798792
 20
-24.06465030186904
 30
0.0
 42
-0.1210102841103096
  0
VERTEX
  5
219
  8
DRAFT
 10
-795.6662373218579
 20
-24.06465030186898
 30
0.0
 42
-0.3453056976010503
  0
VERTEX
  5
21A
  8
DRAFT
 10
-795.9222329201594
 20
-23.73816900953998
 30
0.0
  0
VERTEX
  5
21B
  8
DRAFT
 10
-795.92223292016
 20
-23.35283133216238
 30
0.0
 42
-0.6681786379293703
  0
VERTEX
  5
21C
  8
DRAFT
 10
-795.8688858332476
 20
-23.33073424525006
 30
0.0
  0
VERTEX
  5
21D
  8
DRAFT
 10
-795.7012620510383
 20
-23.49835802746053
 30
0.0
 42
-0.1989123673779843
  0
VERTEX
  5
21E
  8
DRAFT
 10
-795.6097329201594
 20
-23.71932889658023
 30
0.0
  0
VERTEX
  5
21F
  8
DRAFT
 10
-795.6097329201593
 20
-23.73816900954522
 30
0.0
 42
1.000000000000375
  0
VERTEX
  5
220
  8
DRAFT
 10
-795.5623628414194
 20
-23.73816900954499
 30
0.0
  0
VERTEX
  5
221
  8
DRAFT
 10
-795.5623628414196
 20
-23.71013043282674
 30
0.0
 42
0.1989123673812277
  0
VERTEX
  5
222
  8
DRAFT
 10
-795.6538919722983
 20
-23.48915956370552
 30
0.0
  0
VERTEX
  5
223
  8
DRAFT
 10
-795.980475598516
 20
-23.16257593748715
 30
0.0
 42
-0.198912367377086
  0
VERTEX
  5
224
  8
DRAFT
 10
-796.0170872508683
 20
-23.07418758983918
 30
0.0
 42
-0.1989123673775555
  0
VERTEX
  5
225
  8
DRAFT
 10
-796.05369890322
 20
-23.1625759374867
 30
0.0
  0
VERTEX
  5
226
  8
DRAFT
 10
-796.3802825294374
 20
-23.48915956370545
 30
0.0
 42
0.1989123673794924
  0
VERTEX
  5
227
  8
DRAFT
 10
-796.4718116603162
 20
-23.71013043282662
 30
0.0
  0
VERTEX
  5
228
  8
DRAFT
 10
-796.4718116603165
 20
-23.7381690095451
 30
0.0
 42
1.0000000000246
  0
VERTEX
  5
229
  8
DRAFT
 10
-796.4244415815767
 20
-23.7381690095451
 30
0.0
  0
VERTEX
  5
22A
  8
DRAFT
 10
-796.4244415815766
 20
-23.71932889658022
 30
0.0
 42
-0.1989123673803773
  0
VERTEX
  5
22B
  8
DRAFT
 10
-796.3329124506977
 20
-23.49835802746009
 30
0.0
  0
VERTEX
  5
22C
  8
DRAFT
 10
-796.1652886684881
 20
-23.33073424525035
 30
0.0
 42
-0.6681786379236659
  0
VERTEX
  5
22D
  8
DRAFT
 10
-796.1119415815767
 20
-23.35283133216238
 30
0.0
  0
VERTEX
  5
22E
  8
DRAFT
 10
-796.1119415815767
 20
-23.73816900953987
 30
0.0
 42
-0.3453056976027296
  0
VERTEX
  5
22F
  8
DRAFT
 10
-796.367937179878
 20
-24.06465030186909
 30
0.0
 42
-0.1210102841113237
  0
VERTEX
  5
230
  8
DRAFT
 10
-797.166237321857
 20
-24.06465030186875
 30
0.0
 42
-0.345305697601193
  0
VERTEX
  5
231
  8
DRAFT
 10
-797.4222329201582
 20
-23.73816900953987
 30
0.0
  0
VERTEX
  5
232
  8
DRAFT
 10
-797.4222329201591
 20
-23.35283133216238
 30
0.0
 42
-0.6681786379152848
  0
VERTEX
  5
233
  8
DRAFT
 10
-797.3688858332472
 20
-23.33073424525029
 30
0.0
  0
VERTEX
  5
234
  8
DRAFT
 10
-797.2012620510374
 20
-23.49835802746042
 30
0.0
 42
-0.1989123673803448
  0
VERTEX
  5
235
  8
DRAFT
 10
-797.1097329201589
 20
-23.71932889658023
 30
0.0
  0
VERTEX
  5
236
  8
DRAFT
 10
-797.1097329201583
 20
-23.7381690095451
 30
0.0
 42
1.000000000036375
  0
VERTEX
  5
237
  8
DRAFT
 10
-797.0623628414186
 20
-23.73816900954488
 30
0.0
  0
VERTEX
  5
238
  8
DRAFT
 10
-797.0623628414188
 20
-23.71013043282663
 30
0.0
 42
0.1989123673810994
  0
VERTEX
  5
239
  8
DRAFT
 10
-797.1538919722974
 20
-23.48915956370546
 30
0.0
  0
VERTEX
  5
23A
  8
DRAFT
 10
-797.480475598515
 20
-23.16257593748717
 30
0.0
 42
-0.1989123673811593
  0
VERTEX
  5
23B
  8
DRAFT
 10
-797.517087250867
 20
-23.07418758983884
 30
0.0
  0
SEQEND
  5
23C
  8
DRAFT
  0
POLYLINE
  5
23D
  8
DRAFT
 66
     1
 10
0.0
 20
0.0
 30
0.0
  0
VERTEX
  5
23E
  8
DRAFT
 10
-797.5170872508671
 20
-25.15171554088532
 30
0.0
 42
-0.1989123673827819
  0
VERTEX
  5
23F
  8
DRAFT
 10
-797.4804755985149
 20
-25.06332719323749
 30
0.0
  0
VERTEX
  5
240
  8
DRAFT
 10
-797.1538919722976
 20
-24.73674356701869
 30
0.0
 42
0.1989123673781344
  0
VERTEX
  5
241
  8
DRAFT
 10
-797.0623628414191
 20
-24.51577269789754
 30
0.0
  0
VERTEX
  5
242
  8
DRAFT
 10
-797.062362841419
 20
-24.48773412117929
 30
0.0
 42
1.000000000025575
  0
VERTEX
  5
243
  8
DRAFT
 10
-797.1097329201583
 20
-24.48773412117906
 30
0.0
  0
VERTEX
  5
244
  8
DRAFT
 10
-797.1097329201585
 20
-24.50657423414371
 30
0.0
 42
-0.1989123673789907
  0
VERTEX
  5
245
  8
DRAFT
 10
-797.2012620510375
 20
-24.72754510326419
 30
0.0
  0
VERTEX
  5
246
  8
DRAFT
 10
-797.368885833247
 20
-24.89516888547381
 30
0.0
 42
-0.6681786379226136
  0
VERTEX
  5
247
  8
DRAFT
 10
-797.4222329201593
 20
-24.87307179856178
 30
0.0
  0
VERTEX
  5
248
  8
DRAFT
 10
-797.4222329201584
 20
-24.48773412118429
 30
0.0
 42
-0.3453056976023444
  0
VERTEX
  5
249
  8
DRAFT
 10
-797.1662373218571
 20
-24.1612528288544
 30
0.0
 42
-0.1210102841093129
  0
VERTEX
  5
24A
  8
DRAFT
 10
-796.3679371798779
 20
-24.16125282885541
 30
0.0
 42
-0.3453056975991438
  0
VERTEX
  5
24B
  8
DRAFT
 10
-796.1119415815767
 20
-24.4877341211843
 30
0.0
  0
VERTEX
  5
24C
  8
DRAFT
 10
-796.111941581576
 20
-24.87307179856178
 30
0.0
 42
-0.6681786379146322
  0
VERTEX
  5
24D
  8
DRAFT
 10
-796.1652886684885
 20
-24.89516888547458
 30
0.0
  0
VERTEX
  5
24E
  8
DRAFT
 10
-796.3329124506977
 20
-24.72754510326378
 30
0.0
 42
-0.1989123673789663
  0
VERTEX
  5
24F
  8
DRAFT
 10
-796.4244415815766
 20
-24.50657423414393
 30
0.0
  0
VERTEX
  5
250
  8
DRAFT
 10
-796.4244415815766
 20
-24.48773412117929
 30
0.0
 42
1.000000000021
  0
VERTEX
  5
251
  8
DRAFT
 10
-796.4718116603161
 20
-24.48773412117929
 30
0.0
  0
VERTEX
  5
252
  8
DRAFT
 10
-796.4718116603163
 20
-24.51577269789753
 30
0.0
 42
0.1989123673810075
  0
VERTEX
  5
253
  8
DRAFT
 10
-796.3802825294374
 20
-24.73674356701866
 30
0.0
  0
VERTEX
  5
254
  8
DRAFT
 10
-796.0536989032199
 20
-25.06332719323721
 30
0.0
 42
-0.198912367380177
  0
VERTEX
  5
255
  8
DRAFT
 10
-796.0170872508677
 20
-25.15171554088532
 30
0.0
 42
-0.1989123673760678
  0
VERTEX
  5
256
  8
DRAFT
 10
-795.9804755985164
 20
-25.06332719323699
 30
0.0
  0
VERTEX
  5
257
  8
DRAFT
 10
-795.6538919722985
 20
-24.73674356701881
 30
0.0
 42
0.1989123673801739
  0
VERTEX
  5
258
  8
DRAFT
 10
-795.5623628414196
 20
-24.51577269789765
 30
0.0
  0
VERTEX
  5
259
  8
DRAFT
 10
-795.5623628414199
 20
-24.4877341211794
 30
0.0
 42
1.000000000032775
  0
VERTEX
  5
25A
  8
DRAFT
 10
-795.6097329201594
 20
-24.48773412117917
 30
0.0
  0
VERTEX
  5
25B
  8
DRAFT
 10
-795.6097329201594
 20
-24.50657423414383
 30
0.0
 42
-0.1989123673783008
  0
VERTEX
  5
25C
  8
DRAFT
 10
-795.7012620510384
 20
-24.72754510326402
 30
0.0
  0
VERTEX
  5
25D
  8
DRAFT
 10
-795.8688858332479
 20
-24.89516888547397
 30
0.0
 42
-0.6681786379121947
  0
VERTEX
  5
25E
  8
DRAFT
 10
-795.9222329201608
 20
-24.87307179856189
 30
0.0
  0
VERTEX
  5
25F
  8
DRAFT
 10
-795.9222329201594
 20
-24.48773412118429
 30
0.0
 42
-0.3453056976021501
  0
VERTEX
  5
260
  8
DRAFT
 10
-795.6662373218581
 20
-24.16125282885485
 30
0.0
 42
-0.1210102841100214
  0
VERTEX
  5
261
  8
DRAFT
 10
-794.8679371798789
 20
-24.16125282885559
 30
0.0
 42
-0.3453056975994854
  0
VERTEX
  5
262
  8
DRAFT
 10
-794.6119415815773
 20
-24.48773412118441
 30
0.0
  0
VERTEX
  5
263
  8
DRAFT
 10
-794.611941581577
 20
-24.8730717985619
 30
0.0
 42
-0.6681786379141962
  0
VERTEX
  5
264
  8
DRAFT
 10
-794.6652886684888
 20
-24.89516888547396
 30
0.0
  0
VERTEX
  5
265
  8
DRAFT
 10
-794.8329124506986
 20
-24.72754510326387
 30
0.0
 42
-0.1989123673787198
  0
VERTEX
  5
266
  8
DRAFT
 10
-794.9244415815772
 20
-24.50657423414405
 30
0.0
  0
VERTEX
  5
267
  8
DRAFT
 10
-794.9244415815775
 20
-24.4877341211794
 30
0.0
 42
1.000000000042599
  0
VERTEX
  5
268
  8
DRAFT
 10
-794.9718116603173
 20
-24.4877341211794
 30
0.0
  0
VERTEX
  5
269
  8
DRAFT
 10
-794.9718116603174
 20
-24.51577269789765
 30
0.0
 42
0.1989123673796657
  0
VERTEX
  5
26A
  8
DRAFT
 10
-794.8802825294384
 20
-24.73674356701887
 30
0.0
  0
VERTEX
  5
26B
  8
DRAFT
 10
-794.5536989032208
 20
-25.06332719323733
 30
0.0
 42
-0.1989123673816314
  0
VERTEX
  5
26C
  8
DRAFT
 10
-794.5170872508687
 20
-25.15171554088543
 30
0.0
  0
SEQEND
  5
26D
  8
DRAFT
  0
LINE
  5
26E
  8
DRAFT
 10
-797.5170872508671
 20
-14.35652046650166
 30
0.0
 11
-797.5170872508675
 21
-33.86938267612603
 31
0.0
  0
LINE
  5
26F
  8
DRAFT
 10
-796.017087250868
 20
-14.35652028856925
 30
0.0
 11
-796.0170872508683
 21
-33.86938262272607
 31
0.0
  0
LINE
  5
270
  8
DRAFT
 10
-794.5170872508689
 20
-14.35652050799852
 30
0.0
 11
-794.5170872508693
 21
-33.86938288810324
 31
0.0
  0
POLYLINE
  5
271
  8
DRAFT
 66
     1
 10
0.0
 20
0.0
 30
0.0
 70
     1
  0
VERTEX
  5
272
  8
DRAFT
 10
-794.9914966996872
 20
-14.25356271033966
 30
0.0
  0
VERTEX
  5
273
  8
DRAFT
 10
-794.8455813453567
 20
-14.25356271033966
 30
0.0
 42
-0.414213562373354
  0
VERTEX
  5
274
  8
DRAFT
 10
-794.8143313453571
 20
-14.28481271033921
 30
0.0
  0
VERTEX
  5
275
  8
DRAFT
 10
-794.8143313453568
 20
-14.871919009552
 30
0.0
 42
-0.4142135623710581
  0
VERTEX
  5
276
  8
DRAFT
 10
-794.8455813453568
 20
-14.90316900955219
 30
0.0
  0
VERTEX
  5
277
  8
DRAFT
 10
-794.9914966996872
 20
-14.903169009552
 30
0.0
 42
-0.999999999948841
  0
VERTEX
  5
278
  8
DRAFT
 10
-794.9914966996872
 20
-14.86316900955275
 30
0.0
  0
VERTEX
  5
279
  8
DRAFT
 10
-794.8855813453564
 20
-14.863169009552
 30
0.0
 42
0.4142135623671904
  0
VERTEX
  5
27A
  8
DRAFT
 10
-794.8543313453569
 20
-14.83191900955249
 30
0.0
  0
VERTEX
  5
27B
  8
DRAFT
 10
-794.8543313453569
 20
-14.32481271033963
 30
0.0
 42
0.414213562369563
  0
VERTEX
  5
27C
  8
DRAFT
 10
-794.8855813453569
 20
-14.29356271033896
 30
0.0
  0
VERTEX
  5
27D
  8
DRAFT
 10
-794.9914966996872
 20
-14.29356271033963
 30
0.0
 42
-0.9999999999829471
  0
SEQEND
  5
27E
  8
DRAFT
  0
POLYLINE
  5
27F
  8
DRAFT
 66
     1
 10
0.0
 20
0.0
 30
0.0
 70
     1
  0
VERTEX
  5
280
  8
DRAFT
 10
-795.5426778020493
 20
-14.25356271033966
 30
0.0
  0
VERTEX
  5
281
  8
DRAFT
 10
-795.6885931563799
 20
-14.25356271033958
 30
0.0
 42
0.4142135623767101
  0
VERTEX
  5
282
  8
DRAFT
 10
-795.7198431563802
 20
-14.28481271033944
 30
0.0
  0
VERTEX
  5
283
  8
DRAFT
 10
-795.71984315638
 20
-14.871919009552
 30
0.0
 42
0.4142135623704795
  0
VERTEX
  5
284
  8
DRAFT
 10
-795.68859315638
 20
-14.90316900955224
 30
0.0
  0
VERTEX
  5
285
  8
DRAFT
 10
-795.5426778020493
 20
-14.903169009552
 30
0.0
 42
0.9999999999602097
  0
VERTEX
  5
286
  8
DRAFT
 10
-795.5426778020493
 20
-14.86316900955229
 30
0.0
  0
VERTEX
  5
287
  8
DRAFT
 10
-795.6485931563801
 20
-14.86316900955209
 30
0.0
 42
-0.4142135623558822
  0
VERTEX
  5
288
  8
DRAFT
 10
-795.6798431563803
 20
-14.83191900955249
 30
0.0
  0
VERTEX
  5
289
  8
DRAFT
 10
-795.6798431563797
 20
-14.32481271033963
 30
0.0
 42
-0.4142135623476238
  0
VERTEX
  5
28A
  8
DRAFT
 10
-795.6485931563797
 20
-14.29356271033985
 30
0.0
  0
VERTEX
  5
28B
  8
DRAFT
 10
-795.5426778020493
 20
-14.29356271033963
 30
0.0
 42
1.000000000042633
  0
SEQEND
  5
28C
  8
DRAFT
  0
POLYLINE
  5
28D
  8
DRAFT
 66
     1
 10
0.0
 20
0.0
 30
0.0
 70
     1
  0
VERTEX
  5
28E
  8
DRAFT
 10
-796.4914966996863
 20
-14.25356271033955
 30
0.0
  0
VERTEX
  5
28F
  8
DRAFT
 10
-796.3455813453558
 20
-14.25356271033955
 30
0.0
 42
-0.4142135623706816
  0
VERTEX
  5
290
  8
DRAFT
 10
-796.3143313453558
 20
-14.28481271033932
 30
0.0
  0
VERTEX
  5
291
  8
DRAFT
 10
-796.3143313453558
 20
-14.87191900955189
 30
0.0
 42
-0.4142135623793143
  0
VERTEX
  5
292
  8
DRAFT
 10
-796.3455813453558
 20
-14.90316900955213
 30
0.0
  0
VERTEX
  5
293
  8
DRAFT
 10
-796.4914966996863
 20
-14.90316900955189
 30
0.0
 42
-0.9999999999658941
  0
VERTEX
  5
294
  8
DRAFT
 10
-796.4914966996863
 20
-14.86316900955286
 30
0.0
  0
VERTEX
  5
295
  8
DRAFT
 10
-796.3855813453555
 20
-14.86316900955183
 30
0.0
 42
0.4142135623782522
  0
VERTEX
  5
296
  8
DRAFT
 10
-796.354331345356
 20
-14.83191900955238
 30
0.0
  0
VERTEX
  5
297
  8
DRAFT
 10
-796.354331345356
 20
-14.32481271033951
 30
0.0
 42
0.4142135623879279
  0
VERTEX
  5
298
  8
DRAFT
 10
-796.385581345356
 20
-14.29356271033942
 30
0.0
  0
VERTEX
  5
299
  8
DRAFT
 10
-796.4914966996863
 20
-14.29356271033951
 30
0.0
 42
-1.000000000019895
  0
SEQEND
  5
29A
  8
DRAFT
  0
POLYLINE
  5
29B
  8
DRAFT
 66
     1
 10
0.0
 20
0.0
 30
0.0
 70
     1
  0
VERTEX
  5
29C
  8
DRAFT
 10
-797.0426778020484
 20
-14.25356271033955
 30
0.0
  0
VERTEX
  5
29D
  8
DRAFT
 10
-797.1885931563789
 20
-14.2535627103395
 30
0.0
 42
0.4142135623634174
  0
VERTEX
  5
29E
  8
DRAFT
 10
-797.2198431563793
 20
-14.28481271033932
 30
0.0
  0
VERTEX
  5
29F
  8
DRAFT
 10
-797.2198431563789
 20
-14.87191900955189
 30
0.0
 42
0.4142135623856669
  0
VERTEX
  5
2A0
  8
DRAFT
 10
-797.1885931563789
 20
-14.90316900955185
 30
0.0
  0
VERTEX
  5
2A1
  8
DRAFT
 10
-797.0426778020484
 20
-14.90316900955189
 30
0.0
 42
0.9999999999715784
  0
VERTEX
  5
2A2
  8
DRAFT
 10
-797.0426778020484
 20
-14.86316900955173
 30
0.0
  0
VERTEX
  5
2A3
  8
DRAFT
 10
-797.1485931563792
 20
-14.86316900955192
 30
0.0
 42
-0.4142135623557935
  0
VERTEX
  5
2A4
  8
DRAFT
 10
-797.1798431563791
 20
-14.83191900955238
 30
0.0
  0
VERTEX
  5
2A5
  8
DRAFT
 10
-797.1798431563788
 20
-14.32481271033951
 30
0.0
 42
-0.4142135623577334
  0
VERTEX
  5
2A6
  8
DRAFT
 10
-797.1485931563788
 20
-14.29356271033942
 30
0.0
  0
VERTEX
  5
2A7
  8
DRAFT
 10
-797.0426778020484
 20
-14.29356271033951
 30
0.0
 42
1.000000000031308
  0
SEQEND
  5
2A8
  8
DRAFT
  0
POLYLINE
  5
2A9
  8
DRAFT
 66
     1
 10
0.0
 20
0.0
 30
0.0
 70
     1
  0
VERTEX
  5
2AA
  8
DRAFT
 10
-794.9914966996873
 20
-23.17714538749793
 30
0.0
  0
VERTEX
  5
2AB
  8
DRAFT
 10
-794.8455813453568
 20
-23.17714538749784
 30
0.0
 42
0.4142135623650656
  0
VERTEX
  5
2AC
  8
DRAFT
 10
-794.8143313453569
 20
-23.14589538749838
 30
0.0
  0
VERTEX
  5
2AD
  8
DRAFT
 10
-794.8143313453567
 20
-22.55878908828559
 30
0.0
 42
0.4142135623616349
  0
VERTEX
  5
2AE
  8
DRAFT
 10
-794.8455813453569
 20
-22.5275390882857
 30
0.0
  0
VERTEX
  5
2AF
  8
DRAFT
 10
-794.9914966996873
 20
-22.52753908828559
 30
0.0
 42
0.9999999999999999
  0
VERTEX
  5
2B0
  8
DRAFT
 10
-794.9914966996874
 20
-22.5675390882849
 30
0.0
  0
VERTEX
  5
2B1
  8
DRAFT
 10
-794.8855813453565
 20
-22.56753908828551
 30
0.0
 42
-0.4142135623854106
  0
VERTEX
  5
2B2
  8
DRAFT
 10
-794.8543313453569
 20
-22.5987890882851
 30
0.0
  0
VERTEX
  5
2B3
  8
DRAFT
 10
-794.854331345357
 20
-23.10589538749797
 30
0.0
 42
-0.4142135623948133
  0
VERTEX
  5
2B4
  8
DRAFT
 10
-794.8855813453571
 20
-23.13714538749861
 30
0.0
  0
VERTEX
  5
2B5
  8
DRAFT
 10
-794.9914966996873
 20
-23.13714538749797
 30
0.0
 42
1.000000000002842
  0
SEQEND
  5
2B6
  8
DRAFT
  0
POLYLINE
  5
2B7
  8
DRAFT
 66
     1
 10
0.0
 20
0.0
 30
0.0
 70
     1
  0
VERTEX
  5
2B8
  8
DRAFT
 10
-795.5426778020494
 20
-23.17714538749838
 30
0.0
  0
VERTEX
  5
2B9
  8
DRAFT
 10
-795.68859315638
 20
-23.17714538749789
 30
0.0
 42
-0.4142135623675555
  0
VERTEX
  5
2BA
  8
DRAFT
 10
-795.7198431563799
 20
-23.14589538749793
 30
0.0
  0
VERTEX
  5
2BB
  8
DRAFT
 10
-795.71984315638
 20
-22.55878908828559
 30
0.0
 42
-0.414213562362492
  0
VERTEX
  5
2BC
  8
DRAFT
 10
-795.6885931563801
 20
-22.52753908828566
 30
0.0
  0
VERTEX
  5
2BD
  8
DRAFT
 10
-795.5426778020494
 20
-22.52753908828559
 30
0.0
 42
-0.9999999999630517
  0
VERTEX
  5
2BE
  8
DRAFT
 10
-795.5426778020494
 20
-22.56753908828468
 30
0.0
  0
VERTEX
  5
2BF
  8
DRAFT
 10
-795.6485931563802
 20
-22.56753908828554
 30
0.0
 42
0.4142135623751148
  0
VERTEX
  5
2C0
  8
DRAFT
 10
-795.6798431563805
 20
-22.5987890882851
 30
0.0
  0
VERTEX
  5
2C1
  8
DRAFT
 10
-795.6798431563798
 20
-23.10589538749797
 30
0.0
 42
0.4142135623645407
  0
VERTEX
  5
2C2
  8
DRAFT
 10
-795.6485931563798
 20
-23.13714538749825
 30
0.0
  0
VERTEX
  5
2C3
  8
DRAFT
 10
-795.5426778020494
 20
-23.13714538749797
 30
0.0
 42
-0.9999999999488408
  0
SEQEND
  5
2C4
  8
DRAFT
  0
POLYLINE
  5
2C5
  8
DRAFT
 66
     1
 10
0.0
 20
0.0
 30
0.0
 70
     1
  0
VERTEX
  5
2C6
  8
DRAFT
 10
-794.9914966996874
 20
-25.04875774322669
 30
0.0
  0
VERTEX
  5
2C7
  8
DRAFT
 10
-794.8455813453569
 20
-25.04875774322623
 30
0.0
 42
-0.4142135623570182
  0
VERTEX
  5
2C8
  8
DRAFT
 10
-794.814331345357
 20
-25.08000774322578
 30
0.0
  0
VERTEX
  5
2C9
  8
DRAFT
 10
-794.8143313453569
 20
-25.66711404243902
 30
0.0
 42
-0.414213562375799
  0
VERTEX
  5
2CA
  8
DRAFT
 10
-794.8455813453569
 20
-25.69836404243938
 30
0.0
  0
VERTEX
  5
2CB
  8
DRAFT
 10
-794.9914966996874
 20
-25.69836404243902
 30
0.0
 42
-1.000000000002842
  0
VERTEX
  5
2CC
  8
DRAFT
 10
-794.9914966996874
 20
-25.65836404243915
 30
0.0
  0
VERTEX
  5
2CD
  8
DRAFT
 10
-794.8855813453566
 20
-25.65836404243908
 30
0.0
 42
0.4142135623888597
  0
VERTEX
  5
2CE
  8
DRAFT
 10
-794.8543313453572
 20
-25.62711404243906
 30
0.0
  0
VERTEX
  5
2CF
  8
DRAFT
 10
-794.8543313453571
 20
-25.1200077432262
 30
0.0
 42
0.4142135623861746
  0
VERTEX
  5
2D0
  8
DRAFT
 10
-794.8855813453571
 20
-25.08875774322604
 30
0.0
  0
VERTEX
  5
2D1
  8
DRAFT
 10
-794.9914966996874
 20
-25.0887577432262
 30
0.0
 42
-1.000000000008438
  0
SEQEND
  5
2D2
  8
DRAFT
  0
POLYLINE
  5
2D3
  8
DRAFT
 66
     1
 10
0.0
 20
0.0
 30
0.0
 70
     1
  0
VERTEX
  5
2D4
  8
DRAFT
 10
-795.5426778020495
 20
-25.04875774322669
 30
0.0
  0
VERTEX
  5
2D5
  8
DRAFT
 10
-795.6885931563801
 20
-25.0487577432263
 30
0.0
 42
0.4142135623813129
  0
VERTEX
  5
2D6
  8
DRAFT
 10
-795.7198431563797
 20
-25.08000774322646
 30
0.0
  0
VERTEX
  5
2D7
  8
DRAFT
 10
-795.7198431563801
 20
-25.66711404243902
 30
0.0
 42
0.4142135623762901
  0
VERTEX
  5
2D8
  8
DRAFT
 10
-795.6885931563801
 20
-25.69836404243907
 30
0.0
  0
VERTEX
  5
2D9
  8
DRAFT
 10
-795.5426778020495
 20
-25.69836404243902
 30
0.0
 42
0.9999999999545254
  0
VERTEX
  5
2DA
  8
DRAFT
 10
-795.5426778020494
 20
-25.65836404243932
 30
0.0
  0
VERTEX
  5
2DB
  8
DRAFT
 10
-795.6485931563803
 20
-25.65836404243905
 30
0.0
 42
-0.4142135623554402
  0
VERTEX
  5
2DC
  8
DRAFT
 10
-795.6798431563806
 20
-25.62711404243906
 30
0.0
  0
VERTEX
  5
2DD
  8
DRAFT
 10
-795.6798431563799
 20
-25.1200077432262
 30
0.0
 42
-0.4142135623559233
  0
VERTEX
  5
2DE
  8
DRAFT
 10
-795.6485931563799
 20
-25.08875774322659
 30
0.0
  0
VERTEX
  5
2DF
  8
DRAFT
 10
-795.5426778020495
 20
-25.0887577432262
 30
0.0
 42
1.00000000006537
  0
SEQEND
  5
2E0
  8
DRAFT
  0
POLYLINE
  5
2E1
  8
DRAFT
 66
     1
 10
0.0
 20
0.0
 30
0.0
 70
     1
  0
VERTEX
  5
2E2
  8
DRAFT
 10
-796.4914966996864
 20
-23.17714538749782
 30
0.0
  0
VERTEX
  5
2E3
  8
DRAFT
 10
-796.3455813453559
 20
-23.17714538749788
 30
0.0
 42
0.4142135623785645
  0
VERTEX
  5
2E4
  8
DRAFT
 10
-796.3143313453558
 20
-23.14589538749827
 30
0.0
  0
VERTEX
  5
2E5
  8
DRAFT
 10
-796.3143313453559
 20
-22.55878908828548
 30
0.0
 42
0.4142135623800322
  0
VERTEX
  5
2E6
  8
DRAFT
 10
-796.3455813453559
 20
-22.52753908828561
 30
0.0
  0
VERTEX
  5
2E7
  8
DRAFT
 10
-796.4914966996864
 20
-22.52753908828548
 30
0.0
 42
1.000000000005773
  0
VERTEX
  5
2E8
  8
DRAFT
 10
-796.4914966996865
 20
-22.56753908828473
 30
0.0
  0
VERTEX
  5
2E9
  8
DRAFT
 10
-796.3855813453556
 20
-22.56753908828539
 30
0.0
 42
-0.4142135623702515
  0
VERTEX
  5
2EA
  8
DRAFT
 10
-796.3543313453558
 20
-22.59878908828522
 30
0.0
  0
VERTEX
  5
2EB
  8
DRAFT
 10
-796.3543313453561
 20
-23.10589538749785
 30
0.0
 42
-0.4142135623828605
  0
VERTEX
  5
2EC
  8
DRAFT
 10
-796.3855813453561
 20
-23.13714538749912
 30
0.0
  0
VERTEX
  5
2ED
  8
DRAFT
 10
-796.4914966996864
 20
-23.13714538749785
 30
0.0
 42
1.000000000005596
  0
SEQEND
  5
2EE
  8
DRAFT
  0
POLYLINE
  5
2EF
  8
DRAFT
 66
     1
 10
0.0
 20
0.0
 30
0.0
 70
     1
  0
VERTEX
  5
2F0
  8
DRAFT
 10
-797.0426778020485
 20
-23.17714538749827
 30
0.0
  0
VERTEX
  5
2F1
  8
DRAFT
 10
-797.188593156379
 20
-23.17714538749782
 30
0.0
 42
-0.4142135623688861
  0
VERTEX
  5
2F2
  8
DRAFT
 10
-797.2198431563793
 20
-23.14589538749782
 30
0.0
  0
VERTEX
  5
2F3
  8
DRAFT
 10
-797.2198431563789
 20
-22.55878908828548
 30
0.0
 42
-0.414213562365089
  0
VERTEX
  5
2F4
  8
DRAFT
 10
-797.1885931563792
 20
-22.5275390882856
 30
0.0
  0
VERTEX
  5
2F5
  8
DRAFT
 10
-797.0426778020485
 20
-22.52753908828548
 30
0.0
 42
-0.9999999999914734
  0
VERTEX
  5
2F6
  8
DRAFT
 10
-797.0426778020486
 20
-22.56753908828502
 30
0.0
  0
VERTEX
  5
2F7
  8
DRAFT
 10
-797.1485931563793
 20
-22.56753908828551
 30
0.0
 42
0.4142135623611211
  0
VERTEX
  5
2F8
  8
DRAFT
 10
-797.1798431563792
 20
-22.59878908828522
 30
0.0
  0
VERTEX
  5
2F9
  8
DRAFT
 10
-797.1798431563789
 20
-23.10589538749785
 30
0.0
 42
0.4142135623680538
  0
VERTEX
  5
2FA
  8
DRAFT
 10
-797.148593156379
 20
-23.13714538749798
 30
0.0
  0
VERTEX
  5
2FB
  8
DRAFT
 10
-797.0426778020485
 20
-23.13714538749785
 30
0.0
 42
-0.9999999999715782
  0
SEQEND
  5
2FC
  8
DRAFT
  0
POLYLINE
  5
2FD
  8
DRAFT
 66
     1
 10
0.0
 20
0.0
 30
0.0
 70
     1
  0
VERTEX
  5
2FE
  8
DRAFT
 10
-796.4914966996865
 20
-25.04875774322657
 30
0.0
  0
VERTEX
  5
2FF
  8
DRAFT
 10
-796.345581345356
 20
-25.04875774322612
 30
0.0
 42
-0.4142135623587777
  0
VERTEX
  5
300
  8
DRAFT
 10
-796.3143313453564
 20
-25.08000774322589
 30
0.0
  0
VERTEX
  5
301
  8
DRAFT
 10
-796.314331345356
 20
-25.66711404243891
 30
0.0
 42
-0.4142135623774353
  0
VERTEX
  5
302
  8
DRAFT
 10
-796.345581345356
 20
-25.69836404243904
 30
0.0
  0
VERTEX
  5
303
  8
DRAFT
 10
-796.4914966996865
 20
-25.69836404243891
 30
0.0
 42
-0.9999999999829471
  0
VERTEX
  5
304
  8
DRAFT
 10
-796.4914966996865
 20
-25.65836404243875
 30
0.0
  0
VERTEX
  5
305
  8
DRAFT
 10
-796.3855813453557
 20
-25.65836404243896
 30
0.0
 42
0.4142135623787048
  0
VERTEX
  5
306
  8
DRAFT
 10
-796.3543313453562
 20
-25.62711404243895
 30
0.0
  0
VERTEX
  5
307
  8
DRAFT
 10
-796.3543313453561
 20
-25.12000774322608
 30
0.0
 42
0.4142135623697329
  0
VERTEX
  5
308
  8
DRAFT
 10
-796.3855813453561
 20
-25.08875774322604
 30
0.0
  0
VERTEX
  5
309
  8
DRAFT
 10
-796.4914966996865
 20
-25.08875774322608
 30
0.0
 42
-1.00000000002558
  0
SEQEND
  5
30A
  8
DRAFT
  0
POLYLINE
  5
30B
  8
DRAFT
 66
     1
 10
0.0
 20
0.0
 30
0.0
 70
     1
  0
VERTEX
  5
30C
  8
DRAFT
 10
-797.0426778020486
 20
-25.04875774322657
 30
0.0
  0
VERTEX
  5
30D
  8
DRAFT
 10
-797.1885931563792
 20
-25.04875774322611
 30
0.0
 42
0.4142135623684211
  0
VERTEX
  5
30E
  8
DRAFT
 10
-797.2198431563796
 20
-25.08000774322635
 30
0.0
  0
VERTEX
  5
30F
  8
DRAFT
 10
-797.2198431563792
 20
-25.66711404243891
 30
0.0
 42
0.4142135623859591
  0
VERTEX
  5
310
  8
DRAFT
 10
-797.1885931563792
 20
-25.69836404243871
 30
0.0
  0
VERTEX
  5
311
  8
DRAFT
 10
-797.0426778020486
 20
-25.69836404243891
 30
0.0
 42
0.9999999999801047
  0
VERTEX
  5
312
  8
DRAFT
 10
-797.0426778020485
 20
-25.65836404243875
 30
0.0
  0
VERTEX
  5
313
  8
DRAFT
 10
-797.1485931563795
 20
-25.658364042439
 30
0.0
 42
-0.4142135623610028
  0
VERTEX
  5
314
  8
DRAFT
 10
-797.1798431563793
 20
-25.62711404243895
 30
0.0
  0
VERTEX
  5
315
  8
DRAFT
 10
-797.179843156379
 20
-25.12000774322608
 30
0.0
 42
-0.4142135623594598
  0
VERTEX
  5
316
  8
DRAFT
 10
-797.148593156379
 20
-25.08875774322638
 30
0.0
  0
VERTEX
  5
317
  8
DRAFT
 10
-797.0426778020486
 20
-25.08875774322608
 30
0.0
 42
1.000000000053913
  0
SEQEND
  5
318
  8
DRAFT
  0
POLYLINE
  5
319
  8
DRAFT
 66
     1
 10
0.0
 20
0.0
 30
0.0
 70
     1
  0
VERTEX
  5
31A
  8
DRAFT
 10
-794.9914966996876
 20
-33.97234042038448
 30
0.0
  0
VERTEX
  5
31B
  8
DRAFT
 10
-794.845581345357
 20
-33.97234042038492
 30
0.0
 42
0.4142135623676612
  0
VERTEX
  5
31C
  8
DRAFT
 10
-794.8143313453572
 20
-33.94109042038493
 30
0.0
  0
VERTEX
  5
31D
  8
DRAFT
 10
-794.814331345357
 20
-33.35398412117214
 30
0.0
 42
0.4142135623784206
  0
VERTEX
  5
31E
  8
DRAFT
 10
-794.845581345357
 20
-33.32273412117178
 30
0.0
  0
VERTEX
  5
31F
  8
DRAFT
 10
-794.9914966996876
 20
-33.32273412117214
 30
0.0
 42
0.9999999999802826
  0
VERTEX
  5
320
  8
DRAFT
 10
-794.9914966996876
 20
-33.36273412117263
 30
0.0
  0
VERTEX
  5
321
  8
DRAFT
 10
-794.8855813453567
 20
-33.3627341211721
 30
0.0
 42
-0.4142135623717406
  0
VERTEX
  5
322
  8
DRAFT
 10
-794.8543313453573
 20
-33.3939841211721
 30
0.0
  0
VERTEX
  5
323
  8
DRAFT
 10
-794.8543313453572
 20
-33.90109042038497
 30
0.0
 42
-0.414213562360877
  0
VERTEX
  5
324
  8
DRAFT
 10
-794.8855813453572
 20
-33.932340420385
 30
0.0
  0
VERTEX
  5
325
  8
DRAFT
 10
-794.9914966996876
 20
-33.93234042038497
 30
0.0
 42
1.000000000022737
  0
SEQEND
  5
326
  8
DRAFT
  0
POLYLINE
  5
327
  8
DRAFT
 66
     1
 10
0.0
 20
0.0
 30
0.0
 70
     1
  0
VERTEX
  5
328
  8
DRAFT
 10
-795.5426778020496
 20
-33.97234042038493
 30
0.0
  0
VERTEX
  5
329
  8
DRAFT
 10
-795.6885931563802
 20
-33.97234042038493
 30
0.0
 42
-0.4142135623694211
  0
VERTEX
  5
32A
  8
DRAFT
 10
-795.7198431563797
 20
-33.94109042038493
 30
0.0
  0
VERTEX
  5
32B
  8
DRAFT
 10
-795.7198431563802
 20
-33.35398412117214
 30
0.0
 42
-0.4142135623687014
  0
VERTEX
  5
32C
  8
DRAFT
 10
-795.6885931563802
 20
-33.32273412117161
 30
0.0
  0
VERTEX
  5
32D
  8
DRAFT
 10
-795.5426778020496
 20
-33.32273412117214
 30
0.0
 42
-1.000000000008704
  0
VERTEX
  5
32E
  8
DRAFT
 10
-795.5426778020495
 20
-33.36273412117217
 30
0.0
  0
VERTEX
  5
32F
  8
DRAFT
 10
-795.6485931563805
 20
-33.36273412117207
 30
0.0
 42
0.4142135623646472
  0
VERTEX
  5
330
  8
DRAFT
 10
-795.6798431563805
 20
-33.3939841211721
 30
0.0
  0
VERTEX
  5
331
  8
DRAFT
 10
-795.67984315638
 20
-33.90109042038497
 30
0.0
 42
0.4142135623699619
  0
VERTEX
  5
332
  8
DRAFT
 10
-795.64859315638
 20
-33.93234042038456
 30
0.0
  0
VERTEX
  5
333
  8
DRAFT
 10
-795.5426778020496
 20
-33.93234042038497
 30
0.0
 42
-1.000000000008527
  0
SEQEND
  5
334
  8
DRAFT
  0
POLYLINE
  5
335
  8
DRAFT
 66
     1
 10
0.0
 20
0.0
 30
0.0
 70
     1
  0
VERTEX
  5
336
  8
DRAFT
 10
-796.4914966996866
 20
-33.97234042038436
 30
0.0
  0
VERTEX
  5
337
  8
DRAFT
 10
-796.3455813453561
 20
-33.97234042038477
 30
0.0
 42
0.4142135623642706
  0
VERTEX
  5
338
  8
DRAFT
 10
-796.3143313453561
 20
-33.94109042038482
 30
0.0
  0
VERTEX
  5
339
  8
DRAFT
 10
-796.3143313453561
 20
-33.35398412117203
 30
0.0
 42
0.4142135623680082
  0
VERTEX
  5
33A
  8
DRAFT
 10
-796.3455813453561
 20
-33.32273412117189
 30
0.0
  0
VERTEX
  5
33B
  8
DRAFT
 10
-796.4914966996866
 20
-33.32273412117203
 30
0.0
 42
1.000000000019895
  0
VERTEX
  5
33C
  8
DRAFT
 10
-796.4914966996866
 20
-33.36273412117171
 30
0.0
  0
VERTEX
  5
33D
  8
DRAFT
 10
-796.3855813453558
 20
-33.36273412117199
 30
0.0
 42
-0.4142135623643585
  0
VERTEX
  5
33E
  8
DRAFT
 10
-796.3543313453562
 20
-33.39398412117199
 30
0.0
  0
VERTEX
  5
33F
  8
DRAFT
 10
-796.3543313453563
 20
-33.90109042038485
 30
0.0
 42
-0.4142135623960297
  0
VERTEX
  5
340
  8
DRAFT
 10
-796.3855813453563
 20
-33.93234042038489
 30
0.0
  0
VERTEX
  5
341
  8
DRAFT
 10
-796.4914966996866
 20
-33.93234042038485
 30
0.0
 42
1.000000000033928
  0
SEQEND
  5
342
  8
DRAFT
  0
POLYLINE
  5
343
  8
DRAFT
 66
     1
 10
0.0
 20
0.0
 30
0.0
 70
     1
  0
VERTEX
  5
344
  8
DRAFT
 10
-797.0426778020487
 20
-33.97234042038482
 30
0.0
  0
VERTEX
  5
345
  8
DRAFT
 10
-797.1885931563793
 20
-33.97234042038482
 30
0.0
 42
-0.4142135623663601
  0
VERTEX
  5
346
  8
DRAFT
 10
-797.219843156379
 20
-33.94109042038482
 30
0.0
  0
VERTEX
  5
347
  8
DRAFT
 10
-797.2198431563793
 20
-33.35398412117203
 30
0.0
 42
-0.4142135623547078
  0
VERTEX
  5
348
  8
DRAFT
 10
-797.1885931563793
 20
-33.32273412117213
 30
0.0
  0
VERTEX
  5
349
  8
DRAFT
 10
-797.0426778020487
 20
-33.32273412117203
 30
0.0
 42
-0.9999999999689136
  0
VERTEX
  5
34A
  8
DRAFT
 10
-797.0426778020487
 20
-33.36273412117183
 30
0.0
  0
VERTEX
  5
34B
  8
DRAFT
 10
-797.1485931563795
 20
-33.36273412117202
 30
0.0
 42
0.414213562378793
  0
VERTEX
  5
34C
  8
DRAFT
 10
-797.1798431563789
 20
-33.39398412117199
 30
0.0
  0
VERTEX
  5
34D
  8
DRAFT
 10
-797.1798431563791
 20
-33.90109042038485
 30
0.0
 42
0.4142135623605716
  0
VERTEX
  5
34E
  8
DRAFT
 10
-797.1485931563791
 20
-33.93234042038483
 30
0.0
  0
VERTEX
  5
34F
  8
DRAFT
 10
-797.0426778020487
 20
-33.93234042038485
 30
0.0
 42
-0.9999999999888088
  0
SEQEND
  5
350
  8
DRAFT
  0
LINE
  5
351
  8
DRAFT
 10
-758.3439221137028
 20
-33.62588297707153
 30
0.0
 11
-758.3284810938226
 21
-33.44939131223278
 31
0.0
  0
LINE
  5
352
  8
DRAFT
 10
-780.4975020065053
 20
-33.62588297707062
 30
0.0
 11
-780.4820609866251
 21
-33.44939131223187
 31
0.0
  0
LINE
  5
353
  8
DRAFT
 10
-790.8056157841868
 20
-33.6258829770702
 30
0.0
 11
-790.821056804067
 21
-33.44939131223145
 31
0.0
  0
POLYLINE
  5
354
  8
DRAFT
 66
     1
 10
0.0
 20
0.0
 30
0.0
  0
VERTEX
  5
355
  8
DRAFT
 10
-778.0389760540138
 20
-34.47936152866983
 30
0.0
  0
VERTEX
  5
356
  8
DRAFT
 10
-778.0141886922033
 20
-34.48152777011298
 30
0.0
 42
0.1624911418116653
  0
VERTEX
  5
357
  8
DRAFT
 10
-777.93847435877
 20
-34.46387546434264
 30
0.0
 42
0.0901239739899913
  0
VERTEX
  5
358
  8
DRAFT
 10
-777.8038423121402
 20
-34.34315288651726
 30
0.0
 42
0.2945408183566365
  0
VERTEX
  5
359
  8
DRAFT
 10
-777.7699191330662
 20
-33.95498469346353
 30
0.0
 42
0.0931204833690471
  0
VERTEX
  5
35A
  8
DRAFT
 10
-777.88156957453
 20
-33.81273875258082
 30
0.0
 42
0.1594425821330129
  0
VERTEX
  5
35B
  8
DRAFT
 10
-777.9530741429189
 20
-33.7822205467732
 30
0.0
  0
VERTEX
  5
35C
  8
DRAFT
 10
-777.9778615046907
 20
-33.7800543048863
 30
0.0
  0
SEQEND
  5
35D
  8
DRAFT
  0
POLYLINE
  5
35E
  8
DRAFT
 66
     1
 10
0.0
 20
0.0
 30
0.0
 70
     1
  0
VERTEX
  5
35F
  8
DRAFT
 10
-780.4820609866251
 20
-33.44939131223187
 30
0.0
  0
VERTEX
  5
360
  8
DRAFT
 10
-780.5462483116601
 20
-34.18305579455323
 30
0.0
 42
0.4142135330994146
  0
VERTEX
  5
361
  8
DRAFT
 10
-780.5178408474183
 20
-34.21691049555718
 30
0.0
  0
VERTEX
  5
362
  8
DRAFT
 10
-779.9917990645514
 20
-34.26293324110782
 30
0.0
 42
0.4142135777796204
  0
VERTEX
  5
363
  8
DRAFT
 10
-779.9579443602906
 20
-34.23452577550106
 30
0.0
  0
VERTEX
  5
364
  8
DRAFT
 10
-779.8937570002088
 20
-33.50086129300279
 30
0.0
 42
0.9999999999874648
  0
VERTEX
  5
365
  8
DRAFT
 10
-779.9336047881334
 20
-33.49737506329302
 30
0.0
  0
VERTEX
  5
366
  8
DRAFT
 10
-779.9463222183022
 20
-33.64273562042967
 30
0.0
 42
-0.4142135183878223
  0
VERTEX
  5
367
  8
DRAFT
 10
-779.9801769205849
 20
-33.67114308142138
 30
0.0
  0
VERTEX
  5
368
  8
DRAFT
 10
-780.4265231359532
 20
-33.63209282515546
 30
0.0
 42
-0.4142135477795733
  0
VERTEX
  5
369
  8
DRAFT
 10
-780.4549306017557
 20
-33.5982381240151
 30
0.0
  0
VERTEX
  5
36A
  8
DRAFT
 10
-780.442213198701
 20
-33.4528775419419
 30
0.0
 42
1.000000000028499
  0
SEQEND
  5
36B
  8
DRAFT
  0
POLYLINE
  5
36C
  8
DRAFT
 66
     1
 10
0.0
 20
0.0
 30
0.0
 70
     1
  0
VERTEX
  5
36D
  8
DRAFT
 10
-779.3777811010277
 20
-34.29329577846672
 30
0.0
 42
0.4142135623843837
  0
VERTEX
  5
36E
  8
DRAFT
 10
-779.3493750521782
 20
-34.32715166995899
 30
0.0
  0
VERTEX
  5
36F
  8
DRAFT
 10
-778.9319264576507
 20
-34.36369131422514
 30
0.0
 42
0.4142135623599114
  0
VERTEX
  5
370
  8
DRAFT
 10
-778.8980705661581
 20
-34.33528526537511
 30
0.0
  0
VERTEX
  5
371
  8
DRAFT
 10
-778.8506191067854
 20
-33.79317421253577
 30
0.0
 42
0.4142135624025335
  0
VERTEX
  5
372
  8
DRAFT
 10
-778.8790251556356
 20
-33.75931832104401
 30
0.0
  0
VERTEX
  5
373
  8
DRAFT
 10
-779.2964737501629
 20
-33.72277867677735
 30
0.0
 42
0.4142135623557147
  0
VERTEX
  5
374
  8
DRAFT
 10
-779.3303296416547
 20
-33.75118472562762
 30
0.0
  0
SEQEND
  5
375
  8
DRAFT
  0
POLYLINE
  5
376
  8
DRAFT
 66
     1
 10
0.0
 20
0.0
 30
0.0
  0
VERTEX
  5
377
  8
DRAFT
 10
-793.2641417366783
 20
-34.47936152866921
 30
0.0
  0
VERTEX
  5
378
  8
DRAFT
 10
-793.288929098489
 20
-34.48152777011229
 30
0.0
 42
-0.1624911418102837
  0
VERTEX
  5
379
  8
DRAFT
 10
-793.3646434319218
 20
-34.46387546434185
 30
0.0
 42
-0.0901239739919891
  0
VERTEX
  5
37A
  8
DRAFT
 10
-793.4992754785524
 20
-34.34315288651658
 30
0.0
 42
-0.2945408183537894
  0
VERTEX
  5
37B
  8
DRAFT
 10
-793.5331986576259
 20
-33.95498469346283
 30
0.0
 42
-0.0931204833696877
  0
VERTEX
  5
37C
  8
DRAFT
 10
-793.4215482161619
 20
-33.81273875258029
 30
0.0
 42
-0.1594425821261395
  0
VERTEX
  5
37D
  8
DRAFT
 10
-793.3500436477732
 20
-33.78222054677208
 30
0.0
  0
VERTEX
  5
37E
  8
DRAFT
 10
-793.3252562860011
 20
-33.78005430488567
 30
0.0
  0
SEQEND
  5
37F
  8
DRAFT
  0
POLYLINE
  5
380
  8
DRAFT
 66
     1
 10
0.0
 20
0.0
 30
0.0
 70
     1
  0
VERTEX
  5
381
  8
DRAFT
 10
-790.821056804067
 20
-33.44939131223145
 30
0.0
  0
VERTEX
  5
382
  8
DRAFT
 10
-790.756869479032
 20
-34.18305579455281
 30
0.0
 42
-0.4142135330879387
  0
VERTEX
  5
383
  8
DRAFT
 10
-790.7852769432735
 20
-34.21691049555636
 30
0.0
  0
VERTEX
  5
384
  8
DRAFT
 10
-791.3113187261406
 20
-34.2629332411074
 30
0.0
 42
-0.4142135777925896
  0
VERTEX
  5
385
  8
DRAFT
 10
-791.3451734304008
 20
-34.23452577550053
 30
0.0
  0
VERTEX
  5
386
  8
DRAFT
 10
-791.4093607904833
 20
-33.50086129300234
 30
0.0
 42
-0.9999999999809502
  0
VERTEX
  5
387
  8
DRAFT
 10
-791.3695130025584
 20
-33.49737506329254
 30
0.0
  0
VERTEX
  5
388
  8
DRAFT
 10
-791.35679557239
 20
-33.64273562042921
 30
0.0
 42
0.4142135183869733
  0
VERTEX
  5
389
  8
DRAFT
 10
-791.3229408701075
 20
-33.6711430814216
 30
0.0
  0
VERTEX
  5
38A
  8
DRAFT
 10
-790.8765946547389
 20
-33.63209282515503
 30
0.0
 42
0.4142135477646529
  0
VERTEX
  5
38B
  8
DRAFT
 10
-790.8481871889363
 20
-33.59823812401465
 30
0.0
  0
VERTEX
  5
38C
  8
DRAFT
 10
-790.8609045919909
 20
-33.45287754194145
 30
0.0
 42
-1.000000000019373
  0
SEQEND
  5
38D
  8
DRAFT
  0
POLYLINE
  5
38E
  8
DRAFT
 66
     1
 10
0.0
 20
0.0
 30
0.0
 70
     1
  0
VERTEX
  5
38F
  8
DRAFT
 10
-791.9253366896642
 20
-34.29329577846621
 30
0.0
 42
-0.4142135623514038
  0
VERTEX
  5
390
  8
DRAFT
 10
-791.9537427385144
 20
-34.32715166995851
 30
0.0
  0
VERTEX
  5
391
  8
DRAFT
 10
-792.3711913330412
 20
-34.3636913142246
 30
0.0
 42
-0.4142135623771954
  0
VERTEX
  5
392
  8
DRAFT
 10
-792.4050472245342
 20
-34.3352852653746
 30
0.0
  0
VERTEX
  5
393
  8
DRAFT
 10
-792.4524986839067
 20
-33.79317421253523
 30
0.0
 42
-0.4142135623648904
  0
VERTEX
  5
394
  8
DRAFT
 10
-792.4240926350571
 20
-33.75931832104267
 30
0.0
  0
VERTEX
  5
395
  8
DRAFT
 10
-792.0066440405292
 20
-33.72277867677686
 30
0.0
 42
-0.414213562365112
  0
VERTEX
  5
396
  8
DRAFT
 10
-791.9727881490372
 20
-33.75118472562711
 30
0.0
  0
SEQEND
  5
397
  8
DRAFT
  0
POLYLINE
  5
398
  8
DRAFT
 66
     1
 10
0.0
 20
0.0
 30
0.0
  0
VERTEX
  5
399
  8
DRAFT
 10
-778.8312651708484
 20
-33.27505618924325
 30
0.0
 42
-0.1738231549386104
  0
VERTEX
  5
39A
  8
DRAFT
 10
-778.7623595773017
 20
-33.32372926404179
 30
0.0
  0
VERTEX
  5
39B
  8
DRAFT
 10
-778.4947830212873
 20
-33.70527233684276
 30
0.0
 42
0.2214558604978564
  0
VERTEX
  5
39C
  8
DRAFT
 10
-778.4490706270012
 20
-33.73164754794247
 30
0.0
  0
VERTEX
  5
39D
  8
DRAFT
 10
-778.4042053298958
 20
-33.73558083260098
 30
0.0
 42
-0.1622776624639912
  0
VERTEX
  5
39E
  8
DRAFT
 10
-778.3679402852631
 20
-33.75130808855371
 30
0.0
  0
VERTEX
  5
39F
  8
DRAFT
 10
-778.3601846264824
 20
-33.75826199170633
 30
0.0
 42
2.013858596054942
  0
VERTEX
  5
3A0
  8
DRAFT
 10
-778.3510255285255
 20
-33.6587291512501
 30
0.0
  0
VERTEX
  5
3A1
  8
DRAFT
 10
-778.3601655269055
 20
-33.66434507392764
 30
0.0
 42
-0.1609716664744337
  0
VERTEX
  5
3A2
  8
DRAFT
 10
-778.3983432395835
 20
-33.6733550329111
 30
0.0
  0
VERTEX
  5
3A3
  8
DRAFT
 10
-778.4171395980435
 20
-33.67170717960013
 30
0.0
 42
-0.2261705714152527
  0
VERTEX
  5
3A4
  8
DRAFT
 10
-778.4634881892653
 20
-33.64440724511265
 30
0.0
  0
VERTEX
  5
3A5
  8
DRAFT
 10
-778.5375146071145
 20
-33.53471202380221
 30
0.0
 42
-0.6310043784694701
  0
VERTEX
  5
3A6
  8
DRAFT
 10
-778.4230160622037
 20
-33.34026430785176
 30
0.0
  0
SEQEND
  5
3A7
  8
DRAFT
  0
POLYLINE
  5
3A8
  8
DRAFT
 66
     1
 10
0.0
 20
0.0
 30
0.0
  0
VERTEX
  5
3A9
  8
DRAFT
 10
-777.838645111066
 20
-33.39134366823695
 30
0.0
 42
-0.2215234308544146
  0
VERTEX
  5
3AA
  8
DRAFT
 10
-777.7471882399224
 20
-33.44409689891041
 30
0.0
  0
VERTEX
  5
3AB
  8
DRAFT
 10
-777.503061109263
 20
-33.79220411727677
 30
0.0
 42
0.2214558605033346
  0
VERTEX
  5
3AC
  8
DRAFT
 10
-777.4573487149767
 20
-33.81857932837622
 30
0.0
  0
VERTEX
  5
3AD
  8
DRAFT
 10
-777.4124834178715
 20
-33.82251261303491
 30
0.0
 42
-0.1622776624701363
  0
VERTEX
  5
3AE
  8
DRAFT
 10
-777.3762183732384
 20
-33.83823986898754
 30
0.0
  0
VERTEX
  5
3AF
  8
DRAFT
 10
-777.368462714458
 20
-33.84519377214017
 30
0.0
 42
2.013858596083729
  0
VERTEX
  5
3B0
  8
DRAFT
 10
-777.3593036165013
 20
-33.74566093168436
 30
0.0
  0
VERTEX
  5
3B1
  8
DRAFT
 10
-777.368443614881
 20
-33.75127685436149
 30
0.0
 42
-0.1609716664724223
  0
VERTEX
  5
3B2
  8
DRAFT
 10
-777.4066213275587
 20
-33.76028681334468
 30
0.0
  0
VERTEX
  5
3B3
  8
DRAFT
 10
-777.425417686019
 20
-33.75863896003384
 30
0.0
 42
-0.2261705714098331
  0
VERTEX
  5
3B4
  8
DRAFT
 10
-777.4717662772408
 20
-33.73133902554664
 30
0.0
  0
VERTEX
  5
3B5
  8
DRAFT
 10
-777.5459692720799
 20
-33.62138214559379
 30
0.0
 42
-0.6310043784619014
  0
VERTEX
  5
3B6
  8
DRAFT
 10
-777.431470727169
 20
-33.42693442964286
 30
0.0
  0
SEQEND
  5
3B7
  8
DRAFT
  0
POLYLINE
  5
3B8
  8
DRAFT
 66
     1
 10
0.0
 20
0.0
 30
0.0
  0
VERTEX
  5
3B9
  8
DRAFT
 10
-755.8853961612112
 20
-34.47936152867074
 30
0.0
  0
VERTEX
  5
3BA
  8
DRAFT
 10
-755.8606087994008
 20
-34.48152777011385
 30
0.0
 42
0.162491141814418
  0
VERTEX
  5
3BB
  8
DRAFT
 10
-755.7848944659676
 20
-34.46387546434338
 30
0.0
 42
0.0901239739880689
  0
VERTEX
  5
3BC
  8
DRAFT
 10
-755.6502624193373
 20
-34.34315288651814
 30
0.0
 42
0.2945408183559236
  0
VERTEX
  5
3BD
  8
DRAFT
 10
-755.6163392402636
 20
-33.9549846934644
 30
0.0
 42
0.093120483377388
  0
VERTEX
  5
3BE
  8
DRAFT
 10
-755.7279896817276
 20
-33.81273875258178
 30
0.0
 42
0.1594425821308008
  0
VERTEX
  5
3BF
  8
DRAFT
 10
-755.7994942501164
 20
-33.78222054677391
 30
0.0
  0
VERTEX
  5
3C0
  8
DRAFT
 10
-755.8242816118882
 20
-33.78005430488718
 30
0.0
  0
SEQEND
  5
3C1
  8
DRAFT
  0
POLYLINE
  5
3C2
  8
DRAFT
 66
     1
 10
0.0
 20
0.0
 30
0.0
 70
     1
  0
VERTEX
  5
3C3
  8
DRAFT
 10
-758.3284810938226
 20
-33.44939131223278
 30
0.0
  0
VERTEX
  5
3C4
  8
DRAFT
 10
-758.3926684188575
 20
-34.18305579455411
 30
0.0
 42
0.4142135331025836
  0
VERTEX
  5
3C5
  8
DRAFT
 10
-758.3642609546157
 20
-34.2169104955581
 30
0.0
  0
VERTEX
  5
3C6
  8
DRAFT
 10
-757.838219171749
 20
-34.26293324110878
 30
0.0
 42
0.4142135777995199
  0
VERTEX
  5
3C7
  8
DRAFT
 10
-757.804364467489
 20
-34.23452577550189
 30
0.0
  0
VERTEX
  5
3C8
  8
DRAFT
 10
-757.740177107406
 20
-33.50086129300369
 30
0.0
 42
1.000000000039049
  0
VERTEX
  5
3C9
  8
DRAFT
 10
-757.78002489533
 20
-33.49737506329389
 30
0.0
  0
VERTEX
  5
3CA
  8
DRAFT
 10
-757.7927423254996
 20
-33.64273562043055
 30
0.0
 42
-0.4142135183878055
  0
VERTEX
  5
3CB
  8
DRAFT
 10
-757.8265970277823
 20
-33.67114308142305
 30
0.0
  0
VERTEX
  5
3CC
  8
DRAFT
 10
-758.2729432431506
 20
-33.63209282515637
 30
0.0
 42
-0.4142135477743002
  0
VERTEX
  5
3CD
  8
DRAFT
 10
-758.3013507089531
 20
-33.59823812401599
 30
0.0
  0
VERTEX
  5
3CE
  8
DRAFT
 10
-758.2886333058987
 20
-33.45287754194279
 30
0.0
 42
0.9999999999807577
  0
SEQEND
  5
3CF
  8
DRAFT
  0
POLYLINE
  5
3D0
  8
DRAFT
 66
     1
 10
0.0
 20
0.0
 30
0.0
 70
     1
  0
VERTEX
  5
3D1
  8
DRAFT
 10
-757.2242012082254
 20
-34.29329577846763
 30
0.0
 42
0.4142135623666665
  0
VERTEX
  5
3D2
  8
DRAFT
 10
-757.1957951593758
 20
-34.32715166996033
 30
0.0
  0
VERTEX
  5
3D3
  8
DRAFT
 10
-756.7783465648481
 20
-34.36369131422602
 30
0.0
 42
0.414213562388873
  0
VERTEX
  5
3D4
  8
DRAFT
 10
-756.7444906733557
 20
-34.335285265376
 30
0.0
  0
VERTEX
  5
3D5
  8
DRAFT
 10
-756.6970392139829
 20
-33.79317421253668
 30
0.0
 42
0.4142135623726153
  0
VERTEX
  5
3D6
  8
DRAFT
 10
-756.7254452628326
 20
-33.75931832104396
 30
0.0
  0
VERTEX
  5
3D7
  8
DRAFT
 10
-757.1428938573604
 20
-33.72277867677833
 30
0.0
 42
0.4142135623656918
  0
VERTEX
  5
3D8
  8
DRAFT
 10
-757.1767497488529
 20
-33.75118472562849
 30
0.0
  0
SEQEND
  5
3D9
  8
DRAFT
  0
POLYLINE
  5
3DA
  8
DRAFT
 66
     1
 10
0.0
 20
0.0
 30
0.0
  0
VERTEX
  5
3DB
  8
DRAFT
 10
-777.1747108165271
 20
-33.44937759178639
 30
0.0
 42
-0.4142489508363299
  0
VERTEX
  5
3DC
  8
DRAFT
 10
-776.8337930943183
 20
-33.8556522377404
 30
0.0
  0
VERTEX
  5
3DD
  8
DRAFT
 10
-776.8992210107555
 20
-34.60313602714472
 30
0.0
 42
-0.4141732650328045
  0
VERTEX
  5
3DE
  8
DRAFT
 10
-777.3054403102408
 20
-34.94401310872995
 30
0.0
  0
SEQEND
  5
3DF
  8
DRAFT
  0
POLYLINE
  5
3E0
  8
DRAFT
 66
     1
 10
0.0
 20
0.0
 30
0.0
  0
VERTEX
  5
3E1
  8
DRAFT
 10
-778.5538799080222
 20
-34.8349091691893
 30
0.0
 42
-0.6310947064864146
  0
VERTEX
  5
3E2
  8
DRAFT
 10
-778.6328879360283
 20
-34.62352365223346
 30
0.0
  0
VERTEX
  5
3E3
  8
DRAFT
 10
-778.5408542686764
 20
-34.52827904416588
 30
0.0
 42
-0.2261705713970355
  0
VERTEX
  5
3E4
  8
DRAFT
 10
-778.4904676545119
 20
-34.50944642766479
 30
0.0
  0
VERTEX
  5
3E5
  8
DRAFT
 10
-778.4716708458368
 20
-34.51108913748435
 30
0.0
 42
-0.1609716664770912
  0
VERTEX
  5
3E6
  8
DRAFT
 10
-778.4356390005703
 20
-34.52659472463374
 30
0.0
  0
VERTEX
  5
3E7
  8
DRAFT
 10
-778.427613650524
 20
-34.53371314542268
 30
0.0
 42
2.022848026542817
  0
VERTEX
  5
3E8
  8
DRAFT
 10
-778.4193415576417
 20
-34.43410266462925
 30
0.0
  0
VERTEX
  5
3E9
  8
DRAFT
 10
-778.4281873841333
 20
-34.43960342510977
 30
0.0
 42
-0.1622776624683803
  0
VERTEX
  5
3EA
  8
DRAFT
 10
-778.4666332606371
 20
-34.44879116813318
 30
0.0
  0
VERTEX
  5
3EB
  8
DRAFT
 10
-778.5114996323655
 20
-34.44487016054722
 30
0.0
 42
0.221455860490491
  0
VERTEX
  5
3EC
  8
DRAFT
 10
-778.561099071272
 20
-34.46290264268601
 30
0.0
  0
VERTEX
  5
3ED
  8
DRAFT
 10
-778.861940724326
 20
-34.76325301819445
 30
0.0
 42
-0.2214552436149168
  0
VERTEX
  5
3EE
  8
DRAFT
 10
-778.9611393664446
 20
-34.79931785070782
 30
0.0
  0
SEQEND
  5
3EF
  8
DRAFT
  0
POLYLINE
  5
3F0
  8
DRAFT
 66
     1
 10
0.0
 20
0.0
 30
0.0
  0
VERTEX
  5
3F1
  8
DRAFT
 10
-777.5621254955564
 20
-34.92158081405676
 30
0.0
 42
-0.6310947064843817
  0
VERTEX
  5
3F2
  8
DRAFT
 10
-777.6411335235622
 20
-34.71019529710071
 30
0.0
  0
VERTEX
  5
3F3
  8
DRAFT
 10
-777.5491105559928
 20
-34.61496176211823
 30
0.0
 42
-0.2261705713995034
  0
VERTEX
  5
3F4
  8
DRAFT
 10
-777.4987239418286
 20
-34.59612914561689
 30
0.0
  0
VERTEX
  5
3F5
  8
DRAFT
 10
-777.4799271331534
 20
-34.59777185543667
 30
0.0
 42
-0.1609716664743218
  0
VERTEX
  5
3F6
  8
DRAFT
 10
-777.4438952878869
 20
-34.61327744258583
 30
0.0
  0
VERTEX
  5
3F7
  8
DRAFT
 10
-777.4358699378405
 20
-34.62039586337495
 30
0.0
 42
2.022848026569104
  0
VERTEX
  5
3F8
  8
DRAFT
 10
-777.4275978449584
 20
-34.52078538258174
 30
0.0
  0
VERTEX
  5
3F9
  8
DRAFT
 10
-777.4364436714496
 20
-34.52628614306191
 30
0.0
 42
-0.1622776624702457
  0
VERTEX
  5
3FA
  8
DRAFT
 10
-777.4748895479537
 20
-34.53547388608534
 30
0.0
  0
VERTEX
  5
3FB
  8
DRAFT
 10
-777.5197559196823
 20
-34.5315528784996
 30
0.0
 42
0.2214558604995314
  0
VERTEX
  5
3FC
  8
DRAFT
 10
-777.5693553585887
 20
-34.54958536063808
 30
0.0
  0
VERTEX
  5
3FD
  8
DRAFT
 10
-777.8701849340166
 20
-34.8499246311131
 30
0.0
 42
-0.2214556596427539
  0
VERTEX
  5
3FE
  8
DRAFT
 10
-777.9693837164613
 20
-34.88598960372491
 30
0.0
  0
SEQEND
  5
3FF
  8
DRAFT
  0
POLYLINE
  5
400
  8
DRAFT
 66
     1
 10
0.0
 20
0.0
 30
0.0
 70
     1
  0
VERTEX
  5
401
  8
DRAFT
 10
-776.7574341764928
 20
-34.99191338952892
 30
0.0
 42
0.0436214061428293
  0
VERTEX
  5
402
  8
DRAFT
 10
-772.392103721447
 20
-34.99191338952924
 30
0.0
  0
VERTEX
  5
403
  8
DRAFT
 10
-765.6806442300663
 20
-34.40535709203154
 30
0.0
 42
-0.0436214061426509
  0
VERTEX
  5
404
  8
DRAFT
 10
-761.315313775021
 20
-34.40535709203179
 30
0.0
  0
VERTEX
  5
405
  8
DRAFT
 10
-756.8075594736421
 20
-34.79931785070915
 30
0.0
 42
0.22145524360989
  0
VERTEX
  5
406
  8
DRAFT
 10
-756.7083608315237
 20
-34.76325301819534
 30
0.0
  0
VERTEX
  5
407
  8
DRAFT
 10
-756.4075191784693
 20
-34.46290264268691
 30
0.0
 42
-0.2214558604908826
  0
VERTEX
  5
408
  8
DRAFT
 10
-756.3579197395632
 20
-34.44487016054811
 30
0.0
  0
VERTEX
  5
409
  8
DRAFT
 10
-756.3130533678348
 20
-34.44879116813433
 30
0.0
 42
0.1622776624696994
  0
VERTEX
  5
40A
  8
DRAFT
 10
-756.274607491331
 20
-34.43960342511054
 30
0.0
  0
VERTEX
  5
40B
  8
DRAFT
 10
-756.2657616648395
 20
-34.43410266463027
 30
0.0
 42
-1.989253265080763
  0
VERTEX
  5
40C
  8
DRAFT
 10
-756.2740337577206
 20
-34.53371314542347
 30
0.0
  0
VERTEX
  5
40D
  8
DRAFT
 10
-756.2820591077676
 20
-34.52659472463443
 30
0.0
 42
0.160971666470978
  0
VERTEX
  5
40E
  8
DRAFT
 10
-756.3180909530344
 20
-34.51108913748521
 30
0.0
  0
VERTEX
  5
40F
  8
DRAFT
 10
-756.3368877617092
 20
-34.50944642766569
 30
0.0
 42
0.2261705714113365
  0
VERTEX
  5
410
  8
DRAFT
 10
-756.3872743758736
 20
-34.52827904416682
 30
0.0
  0
VERTEX
  5
411
  8
DRAFT
 10
-756.4793080432261
 20
-34.62352365223425
 30
0.0
 42
0.6310947064801133
  0
VERTEX
  5
412
  8
DRAFT
 10
-756.4003000152201
 20
-34.83490916919015
 30
0.0
  0
VERTEX
  5
413
  8
DRAFT
 10
-755.8158038236589
 20
-34.88598960372595
 30
0.0
 42
0.2214556596473001
  0
VERTEX
  5
414
  8
DRAFT
 10
-755.7166050412135
 20
-34.84992463111407
 30
0.0
  0
VERTEX
  5
415
  8
DRAFT
 10
-755.4157754657858
 20
-34.54958536063924
 30
0.0
 42
-0.2214558605047549
  0
VERTEX
  5
416
  8
DRAFT
 10
-755.3661760268798
 20
-34.53155287850058
 30
0.0
  0
VERTEX
  5
417
  8
DRAFT
 10
-755.3213096551514
 20
-34.53547388608654
 30
0.0
 42
0.1622776624699871
  0
VERTEX
  5
418
  8
DRAFT
 10
-755.2828637786469
 20
-34.52628614306303
 30
0.0
  0
VERTEX
  5
419
  8
DRAFT
 10
-755.2740179521561
 20
-34.5207853825822
 30
0.0
 42
-1.989253265162327
  0
VERTEX
  5
41A
  8
DRAFT
 10
-755.2822900450374
 20
-34.62039586337575
 30
0.0
  0
VERTEX
  5
41B
  8
DRAFT
 10
-755.2903153950839
 20
-34.61327744258673
 30
0.0
 42
0.1609716664693811
  0
VERTEX
  5
41C
  8
DRAFT
 10
-755.3263472403509
 20
-34.59777185543744
 30
0.0
  0
VERTEX
  5
41D
  8
DRAFT
 10
-755.3451440490259
 20
-34.59612914561756
 30
0.0
 42
0.2261705714016106
  0
VERTEX
  5
41E
  8
DRAFT
 10
-755.3955306631906
 20
-34.61496176211904
 30
0.0
  0
VERTEX
  5
41F
  8
DRAFT
 10
-755.4875536307596
 20
-34.7101952971016
 30
0.0
 42
0.6310947064838018
  0
VERTEX
  5
420
  8
DRAFT
 10
-755.4085456027539
 20
-34.9215808140575
 30
0.0
  0
VERTEX
  5
421
  8
DRAFT
 10
-755.1518604174383
 20
-34.94401310873113
 30
0.0
 42
0.4141732650309864
  0
VERTEX
  5
422
  8
DRAFT
 10
-754.745641117953
 20
-34.60313602714562
 30
0.0
  0
VERTEX
  5
423
  8
DRAFT
 10
-754.6802132015156
 20
-33.8556522377413
 30
0.0
 42
0.4142489508375981
  0
VERTEX
  5
424
  8
DRAFT
 10
-755.0211309237245
 20
-33.44937759178693
 30
0.0
  0
VERTEX
  5
425
  8
DRAFT
 10
-755.2778908343662
 20
-33.4269344296438
 30
0.0
 42
0.6310043784682896
  0
VERTEX
  5
426
  8
DRAFT
 10
-755.3923893792772
 20
-33.62138214559475
 30
0.0
  0
VERTEX
  5
427
  8
DRAFT
 10
-755.3181863844385
 20
-33.73133902554743
 30
0.0
 42
0.2261705714067645
  0
VERTEX
  5
428
  8
DRAFT
 10
-755.2718377932165
 20
-33.75863896003482
 30
0.0
  0
VERTEX
  5
429
  8
DRAFT
 10
-755.2530414347558
 20
-33.76028681334557
 30
0.0
 42
0.1609716664776121
  0
VERTEX
  5
42A
  8
DRAFT
 10
-755.2148637220789
 20
-33.7512768543624
 30
0.0
  0
VERTEX
  5
42B
  8
DRAFT
 10
-755.2057237236988
 20
-33.7456609316853
 30
0.0
 42
-1.998067170509978
  0
VERTEX
  5
42C
  8
DRAFT
 10
-755.2148828216559
 20
-33.84519377214126
 30
0.0
  0
VERTEX
  5
42D
  8
DRAFT
 10
-755.2226384804361
 20
-33.83823986898866
 30
0.0
 42
0.1622776624638675
  0
VERTEX
  5
42E
  8
DRAFT
 10
-755.258903525069
 20
-33.82251261303574
 30
0.0
  0
VERTEX
  5
42F
  8
DRAFT
 10
-755.3037688221739
 20
-33.81857932837718
 30
0.0
 42
-0.2214558605029572
  0
VERTEX
  5
430
  8
DRAFT
 10
-755.3494812164607
 20
-33.79220411727778
 30
0.0
  0
VERTEX
  5
431
  8
DRAFT
 10
-755.5936083471198
 20
-33.44409689891137
 30
0.0
 42
0.221523430851768
  0
VERTEX
  5
432
  8
DRAFT
 10
-755.6850652182638
 20
-33.39134366823789
 30
0.0
  0
VERTEX
  5
433
  8
DRAFT
 10
-756.2694361694009
 20
-33.34026430785206
 30
0.0
 42
0.6310043784589431
  0
VERTEX
  5
434
  8
DRAFT
 10
-756.3839347143115
 20
-33.53471202380295
 30
0.0
  0
VERTEX
  5
435
  8
DRAFT
 10
-756.3099082964625
 20
-33.6444072451135
 30
0.0
 42
0.226170571408894
  0
VERTEX
  5
436
  8
DRAFT
 10
-756.263559705241
 20
-33.67170717960085
 30
0.0
  0
VERTEX
  5
437
  8
DRAFT
 10
-756.2447633467805
 20
-33.67335503291172
 30
0.0
 42
0.1609716664807464
  0
VERTEX
  5
438
  8
DRAFT
 10
-756.2065856341028
 20
-33.66434507392842
 30
0.0
  0
VERTEX
  5
439
  8
DRAFT
 10
-756.197445635723
 20
-33.65872915125129
 30
0.0
 42
-1.998067170522175
  0
VERTEX
  5
43A
  8
DRAFT
 10
-756.2066047336804
 20
-33.75826199170743
 30
0.0
  0
VERTEX
  5
43B
  8
DRAFT
 10
-756.2143603924605
 20
-33.75130808855445
 30
0.0
 42
0.1622776624638994
  0
VERTEX
  5
43C
  8
DRAFT
 10
-756.2506254370933
 20
-33.73558083260198
 30
0.0
  0
VERTEX
  5
43D
  8
DRAFT
 10
-756.2954907341983
 20
-33.7316475479433
 30
0.0
 42
-0.2214558604783268
  0
VERTEX
  5
43E
  8
DRAFT
 10
-756.3412031284848
 20
-33.70527233684359
 30
0.0
  0
VERTEX
  5
43F
  8
DRAFT
 10
-756.6087796844993
 20
-33.3237292640428
 30
0.0
 42
0.1738231549346841
  0
VERTEX
  5
440
  8
DRAFT
 10
-756.6776852780458
 20
-33.27505618924437
 30
0.0
 42
-0.3369513388472643
  0
VERTEX
  5
441
  8
DRAFT
 10
-757.9595840293429
 20
-31.58882334020134
 30
0.0
  0
VERTEX
  5
442
  8
DRAFT
 10
-757.9595840293426
 20
-27.15237949875588
 30
0.0
 42
0.3889014466556422
  0
VERTEX
  5
443
  8
DRAFT
 10
-759.5571990700686
 20
-25.40902674495419
 30
0.0
  0
VERTEX
  5
444
  8
DRAFT
 10
-761.3152492994024
 20
-25.25535709203135
 30
0.0
 42
0.0436214070618102
  0
VERTEX
  5
445
  8
DRAFT
 10
-765.680708705684
 20
-25.25535709203112
 30
0.0
  0
VERTEX
  5
446
  8
DRAFT
 10
-767.438758935018
 20
-25.40902674495353
 30
0.0
 42
0.3889014466557374
  0
VERTEX
  5
447
  8
DRAFT
 10
-769.0363739757443
 20
-27.15237949875544
 30
0.0
  0
VERTEX
  5
448
  8
DRAFT
 10
-769.0363739757443
 20
-31.58882334020088
 30
0.0
 42
-0.3889014466555682
  0
VERTEX
  5
449
  8
DRAFT
 10
-770.6339890164702
 20
-33.33217609400291
 30
0.0
  0
VERTEX
  5
44A
  8
DRAFT
 10
-772.392039245804
 20
-33.4858457469252
 30
0.0
 42
-0.0436214070618963
  0
VERTEX
  5
44B
  8
DRAFT
 10
-776.7574986520858
 20
-33.485845746925
 30
0.0
  0
VERTEX
  5
44C
  8
DRAFT
 10
-778.5155488814198
 20
-33.33217609400239
 30
0.0
 42
-0.3889014466555099
  0
VERTEX
  5
44D
  8
DRAFT
 10
-780.1131639221453
 20
-31.58882334020045
 30
0.0
  0
VERTEX
  5
44E
  8
DRAFT
 10
-780.1131639221455
 20
-27.152379498755
 30
0.0
 42
0.3889014466558015
  0
VERTEX
  5
44F
  8
DRAFT
 10
-781.7107789628714
 20
-25.40902674495325
 30
0.0
  0
VERTEX
  5
450
  8
DRAFT
 10
-783.4688291922051
 20
-25.25535709203037
 30
0.0
 42
0.043621407061813
  0
VERTEX
  5
451
  8
DRAFT
 10
-787.8342885984872
 20
-25.25535709203021
 30
0.0
  0
VERTEX
  5
452
  8
DRAFT
 10
-789.5923388278214
 20
-25.40902674495285
 30
0.0
 42
0.3889014466552835
  0
VERTEX
  5
453
  8
DRAFT
 10
-791.1899538685476
 20
-27.15237949875454
 30
0.0
  0
VERTEX
  5
454
  8
DRAFT
 10
-791.1899538685471
 20
-31.5888233402
 30
0.0
 42
-0.3369513388573412
  0
VERTEX
  5
455
  8
DRAFT
 10
-792.4718526198524
 20
-33.27505618921139
 30
0.0
 42
0.1738231547491308
  0
VERTEX
  5
456
  8
DRAFT
 10
-792.5407582133903
 20
-33.32372926404127
 30
0.0
  0
VERTEX
  5
457
  8
DRAFT
 10
-792.8083347694048
 20
-33.70527233684219
 30
0.0
 42
-0.2214558604892025
  0
VERTEX
  5
458
  8
DRAFT
 10
-792.8540471636911
 20
-33.73164754794172
 30
0.0
  0
VERTEX
  5
459
  8
DRAFT
 10
-792.8989124607963
 20
-33.73558083260028
 30
0.0
 42
0.1622776624632704
  0
VERTEX
  5
45A
  8
DRAFT
 10
-792.9351775054292
 20
-33.7513080885531
 30
0.0
  0
VERTEX
  5
45B
  8
DRAFT
 10
-792.9429331642098
 20
-33.75826199170529
 30
0.0
 42
-1.989253265180182
  0
VERTEX
  5
45C
  8
DRAFT
 10
-792.9520922621666
 20
-33.65872915124984
 30
0.0
  0
VERTEX
  5
45D
  8
DRAFT
 10
-792.9429522637865
 20
-33.66434507392704
 30
0.0
 42
0.16097166647207
  0
VERTEX
  5
45E
  8
DRAFT
 10
-792.9047745511089
 20
-33.67335503291027
 30
0.0
  0
VERTEX
  5
45F
  8
DRAFT
 10
-792.8859781926483
 20
-33.67170717959969
 30
0.0
 42
0.2261705714020062
  0
VERTEX
  5
460
  8
DRAFT
 10
-792.8396296014266
 20
-33.64440724511206
 30
0.0
  0
VERTEX
  5
461
  8
DRAFT
 10
-792.7656031835786
 20
-33.53471202380133
 30
0.0
 42
0.6310043784639527
  0
VERTEX
  5
462
  8
DRAFT
 10
-792.8801017284886
 20
-33.34026430785086
 30
0.0
  0
VERTEX
  5
463
  8
DRAFT
 10
-793.4644726796259
 20
-33.39134366823625
 30
0.0
 42
0.221523430851224
  0
VERTEX
  5
464
  8
DRAFT
 10
-793.5559295507701
 20
-33.44409689890965
 30
0.0
  0
VERTEX
  5
465
  8
DRAFT
 10
-793.8000566814293
 20
-33.79220411727625
 30
0.0
 42
-0.2214558604903362
  0
VERTEX
  5
466
  8
DRAFT
 10
-793.8457690757157
 20
-33.81857932837564
 30
0.0
  0
VERTEX
  5
467
  8
DRAFT
 10
-793.8906343728206
 20
-33.82251261303406
 30
0.0
 42
0.16227766246459
  0
VERTEX
  5
468
  8
DRAFT
 10
-793.9268994174536
 20
-33.83823986898695
 30
0.0
  0
VERTEX
  5
469
  8
DRAFT
 10
-793.9346550762341
 20
-33.84519377213993
 30
0.0
 42
-1.989253265095449
  0
VERTEX
  5
46A
  8
DRAFT
 10
-793.9438141741907
 20
-33.74566093168385
 30
0.0
  0
VERTEX
  5
46B
  8
DRAFT
 10
-793.9346741758109
 20
-33.75127685436087
 30
0.0
 42
0.1609716664643946
  0
VERTEX
  5
46C
  8
DRAFT
 10
-793.8964964631336
 20
-33.76028681334419
 30
0.0
  0
VERTEX
  5
46D
  8
DRAFT
 10
-793.8777001046731
 20
-33.75863896003306
 30
0.0
 42
0.2261705714049752
  0
VERTEX
  5
46E
  8
DRAFT
 10
-793.8313515134514
 20
-33.73133902554584
 30
0.0
  0
VERTEX
  5
46F
  8
DRAFT
 10
-793.7571485186122
 20
-33.62138214559302
 30
0.0
 42
0.6310043784622632
  0
VERTEX
  5
470
  8
DRAFT
 10
-793.8716470635236
 20
-33.42693442964228
 30
0.0
  0
VERTEX
  5
471
  8
DRAFT
 10
-794.1284069741653
 20
-33.4493775917859
 30
0.0
 42
0.4142489508347582
  0
VERTEX
  5
472
  8
DRAFT
 10
-794.4693246963736
 20
-33.85565223773968
 30
0.0
  0
VERTEX
  5
473
  8
DRAFT
 10
-794.403896779937
 20
-34.603136027144
 30
0.0
 42
0.4141732650305675
  0
VERTEX
  5
474
  8
DRAFT
 10
-793.9976774804519
 20
-34.94401310872963
 30
0.0
  0
VERTEX
  5
475
  8
DRAFT
 10
-793.7409922951364
 20
-34.9215808140565
 30
0.0
 42
0.6310947064866307
  0
VERTEX
  5
476
  8
DRAFT
 10
-793.66198426713
 20
-34.71019529709982
 30
0.0
  0
VERTEX
  5
477
  8
DRAFT
 10
-793.7540072346997
 20
-34.61496176211756
 30
0.0
 42
0.2261705714139468
  0
VERTEX
  5
478
  8
DRAFT
 10
-793.8043938488639
 20
-34.59612914561631
 30
0.0
  0
VERTEX
  5
479
  8
DRAFT
 10
-793.8231906575387
 20
-34.59777185543626
 30
0.0
 42
0.1609716664603682
  0
VERTEX
  5
47A
  8
DRAFT
 10
-793.8592225028059
 20
-34.6132774425851
 30
0.0
  0
VERTEX
  5
47B
  8
DRAFT
 10
-793.8672478528524
 20
-34.62039586337448
 30
0.0
 42
-1.998067170437726
  0
VERTEX
  5
47C
  8
DRAFT
 10
-793.8755199457338
 20
-34.52078538258068
 30
0.0
  0
VERTEX
  5
47D
  8
DRAFT
 10
-793.8666741192424
 20
-34.5262861430612
 30
0.0
 42
0.1622776624780431
  0
VERTEX
  5
47E
  8
DRAFT
 10
-793.8282282427385
 20
-34.53547388608502
 30
0.0
  0
VERTEX
  5
47F
  8
DRAFT
 10
-793.7833618710102
 20
-34.53155287849918
 30
0.0
 42
-0.2214558604975161
  0
VERTEX
  5
480
  8
DRAFT
 10
-793.7337624321041
 20
-34.54958536063746
 30
0.0
  0
VERTEX
  5
481
  8
DRAFT
 10
-793.4329328566762
 20
-34.84992463111245
 30
0.0
 42
0.2214556596388596
  0
VERTEX
  5
482
  8
DRAFT
 10
-793.3337340742311
 20
-34.88598960372438
 30
0.0
  0
VERTEX
  5
483
  8
DRAFT
 10
-792.7492378826704
 20
-34.8349091691889
 30
0.0
 42
0.6310947064798941
  0
VERTEX
  5
484
  8
DRAFT
 10
-792.670229854664
 20
-34.62352365223258
 30
0.0
  0
VERTEX
  5
485
  8
DRAFT
 10
-792.7622635220162
 20
-34.52827904416523
 30
0.0
 42
0.2261705714099251
  0
VERTEX
  5
486
  8
DRAFT
 10
-792.8126501361804
 20
-34.50944642766412
 30
0.0
  0
VERTEX
  5
487
  8
DRAFT
 10
-792.8314469448555
 20
-34.51108913748368
 30
0.0
 42
0.1609716664756989
  0
VERTEX
  5
488
  8
DRAFT
 10
-792.8674787901223
 20
-34.526594724633
 30
0.0
  0
VERTEX
  5
489
  8
DRAFT
 10
-792.8755041401686
 20
-34.53371314542239
 30
0.0
 42
-1.998067170456467
  0
VERTEX
  5
48A
  8
DRAFT
 10
-792.8837762330504
 20
-34.43410266462865
 30
0.0
  0
VERTEX
  5
48B
  8
DRAFT
 10
-792.8749304065594
 20
-34.43960342510928
 30
0.0
 42
0.162277662474142
  0
VERTEX
  5
48C
  8
DRAFT
 10
-792.8364845300554
 20
-34.44879116813269
 30
0.0
  0
VERTEX
  5
48D
  8
DRAFT
 10
-792.7916181583266
 20
-34.44487016054656
 30
0.0
 42
-0.2214558604912917
  0
VERTEX
  5
48E
  8
DRAFT
 10
-792.7420187194206
 20
-34.46290264268544
 30
0.0
  0
VERTEX
  5
48F
  8
DRAFT
 10
-792.4411770663667
 20
-34.76325301819394
 30
0.0
 42
0.2214552436134526
  0
VERTEX
  5
490
  8
DRAFT
 10
-792.3419784242479
 20
-34.7993178507074
 30
0.0
  0
VERTEX
  5
491
  8
DRAFT
 10
-787.8342241228688
 20
-34.4053570920306
 30
0.0
 42
-0.0436214061426592
  0
VERTEX
  5
492
  8
DRAFT
 10
-783.4688936678231
 20
-34.40535709203088
 30
0.0
  0
SEQEND
  5
493
  8
DRAFT
  0
LINE
  5
494
  8
DRAFT
 10
-768.6520358913842
 20
-33.62588963330401
 30
0.0
 11
-768.6674769112644
 21
-33.44939796846526
 31
0.0
  0
POLYLINE
  5
495
  8
DRAFT
 66
     1
 10
0.0
 20
0.0
 30
0.0
  0
VERTEX
  5
496
  8
DRAFT
 10
-771.1105618438758
 20
-34.47936818490302
 30
0.0
  0
VERTEX
  5
497
  8
DRAFT
 10
-771.1353492056865
 20
-34.4815344263461
 30
0.0
 42
-0.1624911418079668
  0
VERTEX
  5
498
  8
DRAFT
 10
-771.2110635391198
 20
-34.46388212057583
 30
0.0
 42
-0.0901239739955914
  0
VERTEX
  5
499
  8
DRAFT
 10
-771.3456955857496
 20
-34.34315954275044
 30
0.0
 42
-0.294540818349842
  0
VERTEX
  5
49A
  8
DRAFT
 10
-771.3796187648234
 20
-33.95499134969677
 30
0.0
 42
-0.0931204833706665
  0
VERTEX
  5
49B
  8
DRAFT
 10
-771.2679683233595
 20
-33.81274540881403
 30
0.0
 42
-0.1594425821249075
  0
VERTEX
  5
49C
  8
DRAFT
 10
-771.1964637549706
 20
-33.78222720300598
 30
0.0
  0
VERTEX
  5
49D
  8
DRAFT
 10
-771.1716763931986
 20
-33.78006096111948
 30
0.0
  0
SEQEND
  5
49E
  8
DRAFT
  0
POLYLINE
  5
49F
  8
DRAFT
 66
     1
 10
0.0
 20
0.0
 30
0.0
 70
     1
  0
VERTEX
  5
4A0
  8
DRAFT
 10
-768.6674769112644
 20
-33.44939796846526
 30
0.0
  0
VERTEX
  5
4A1
  8
DRAFT
 10
-768.6032895862295
 20
-34.18306245078661
 30
0.0
 42
-0.4142135330939519
  0
VERTEX
  5
4A2
  8
DRAFT
 10
-768.6316970504711
 20
-34.21691715179075
 30
0.0
  0
VERTEX
  5
4A3
  8
DRAFT
 10
-769.157738833338
 20
-34.26293989734129
 30
0.0
 42
-0.414213577784269
  0
VERTEX
  5
4A4
  8
DRAFT
 10
-769.1915935375979
 20
-34.23453243173432
 30
0.0
  0
VERTEX
  5
4A5
  8
DRAFT
 10
-769.2557808976808
 20
-33.50086794923615
 30
0.0
 42
-1.000000000026761
  0
VERTEX
  5
4A6
  8
DRAFT
 10
-769.2159331097572
 20
-33.49738171952641
 30
0.0
  0
VERTEX
  5
4A7
  8
DRAFT
 10
-769.2032156795872
 20
-33.64274227666301
 30
0.0
 42
0.4142135183775438
  0
VERTEX
  5
4A8
  8
DRAFT
 10
-769.169360977305
 20
-33.67114973765492
 30
0.0
  0
VERTEX
  5
4A9
  8
DRAFT
 10
-768.7230147619364
 20
-33.63209948138884
 30
0.0
 42
0.4142135477809545
  0
VERTEX
  5
4AA
  8
DRAFT
 10
-768.694607296133
 20
-33.59824478024841
 30
0.0
  0
VERTEX
  5
4AB
  8
DRAFT
 10
-768.7073246991883
 20
-33.45288419817526
 30
0.0
 42
-0.9999999999902961
  0
SEQEND
  5
4AC
  8
DRAFT
  0
POLYLINE
  5
4AD
  8
DRAFT
 66
     1
 10
0.0
 20
0.0
 30
0.0
 70
     1
  0
VERTEX
  5
4AE
  8
DRAFT
 10
-769.7717567968616
 20
-34.29330243470002
 30
0.0
 42
-0.4142135623856453
  0
VERTEX
  5
4AF
  8
DRAFT
 10
-769.8001628457116
 20
-34.32715832619166
 30
0.0
  0
VERTEX
  5
4B0
  8
DRAFT
 10
-770.2176114402387
 20
-34.36369797045841
 30
0.0
 42
-0.4142135623732586
  0
VERTEX
  5
4B1
  8
DRAFT
 10
-770.251467331732
 20
-34.33529192160842
 30
0.0
  0
VERTEX
  5
4B2
  8
DRAFT
 10
-770.2989187911041
 20
-33.79318086876903
 30
0.0
 42
-0.414213562376832
  0
VERTEX
  5
4B3
  8
DRAFT
 10
-770.2705127422541
 20
-33.75932497727685
 30
0.0
  0
VERTEX
  5
4B4
  8
DRAFT
 10
-769.8530641477266
 20
-33.72278533301066
 30
0.0
 42
-0.414213562360327
  0
VERTEX
  5
4B5
  8
DRAFT
 10
-769.8192082562347
 20
-33.75119138186091
 30
0.0
  0
SEQEND
  5
4B6
  8
DRAFT
  0
POLYLINE
  5
4B7
  8
DRAFT
 66
     1
 10
0.0
 20
0.0
 30
0.0
  0
VERTEX
  5
4B8
  8
DRAFT
 10
-770.318272727041
 20
-33.27506284547653
 30
0.0
 42
0.1738231549397295
  0
VERTEX
  5
4B9
  8
DRAFT
 10
-770.3871783205876
 20
-33.32373592027498
 30
0.0
  0
VERTEX
  5
4BA
  8
DRAFT
 10
-770.654754876602
 20
-33.705278993076
 30
0.0
 42
-0.2214558604960802
  0
VERTEX
  5
4BB
  8
DRAFT
 10
-770.7004672708886
 20
-33.73165420417562
 30
0.0
  0
VERTEX
  5
4BC
  8
DRAFT
 10
-770.7453325679937
 20
-33.73558748883423
 30
0.0
 42
0.1622776624534121
  0
VERTEX
  5
4BD
  8
DRAFT
 10
-770.7815976126266
 20
-33.75131474478714
 30
0.0
  0
VERTEX
  5
4BE
  8
DRAFT
 10
-770.7893532714072
 20
-33.75826864793954
 30
0.0
 42
-2.013858596090414
  0
VERTEX
  5
4BF
  8
DRAFT
 10
-770.7985123693642
 20
-33.65873580748381
 30
0.0
  0
VERTEX
  5
4C0
  8
DRAFT
 10
-770.789372370984
 20
-33.66435173016088
 30
0.0
 42
0.1609716664676792
  0
VERTEX
  5
4C1
  8
DRAFT
 10
-770.7511946583062
 20
-33.6733616891445
 30
0.0
  0
VERTEX
  5
4C2
  8
DRAFT
 10
-770.732398299846
 20
-33.67171383583344
 30
0.0
 42
0.226170571411647
  0
VERTEX
  5
4C3
  8
DRAFT
 10
-770.6860497086245
 20
-33.64441390134591
 30
0.0
  0
VERTEX
  5
4C4
  8
DRAFT
 10
-770.6120232907751
 20
-33.53471868003552
 30
0.0
 42
0.6310043784596402
  0
VERTEX
  5
4C5
  8
DRAFT
 10
-770.7265218356861
 20
-33.34027096408472
 30
0.0
  0
SEQEND
  5
4C6
  8
DRAFT
  0
POLYLINE
  5
4C7
  8
DRAFT
 66
     1
 10
0.0
 20
0.0
 30
0.0
  0
VERTEX
  5
4C8
  8
DRAFT
 10
-771.3108927868234
 20
-33.39135032447013
 30
0.0
 42
0.2215234308498746
  0
VERTEX
  5
4C9
  8
DRAFT
 10
-771.4023496579678
 20
-33.44410355514315
 30
0.0
  0
VERTEX
  5
4CA
  8
DRAFT
 10
-771.6464767886268
 20
-33.79221077350991
 30
0.0
 42
-0.2214558605062876
  0
VERTEX
  5
4CB
  8
DRAFT
 10
-771.6921891829131
 20
-33.81858598460956
 30
0.0
  0
VERTEX
  5
4CC
  8
DRAFT
 10
-771.7370544800183
 20
-33.82251926926806
 30
0.0
 42
0.1622776624664151
  0
VERTEX
  5
4CD
  8
DRAFT
 10
-771.7733195246512
 20
-33.83824652522061
 30
0.0
  0
VERTEX
  5
4CE
  8
DRAFT
 10
-771.7810751834318
 20
-33.8452004283733
 30
0.0
 42
-2.013858596091754
  0
VERTEX
  5
4CF
  8
DRAFT
 10
-771.7902342813884
 20
-33.74566758791789
 30
0.0
  0
VERTEX
  5
4D0
  8
DRAFT
 10
-771.7810942830083
 20
-33.75128351059467
 30
0.0
 42
0.1609716664666522
  0
VERTEX
  5
4D1
  8
DRAFT
 10
-771.7429165703311
 20
-33.76029346957817
 30
0.0
  0
VERTEX
  5
4D2
  8
DRAFT
 10
-771.7241202118705
 20
-33.75864561626699
 30
0.0
 42
0.2261705714092232
  0
VERTEX
  5
4D3
  8
DRAFT
 10
-771.6777716206487
 20
-33.73134568177976
 30
0.0
  0
VERTEX
  5
4D4
  8
DRAFT
 10
-771.6035686258099
 20
-33.62138880182693
 30
0.0
 42
0.6310043784638373
  0
VERTEX
  5
4D5
  8
DRAFT
 10
-771.7180671707212
 20
-33.42694108587624
 30
0.0
  0
SEQEND
  5
4D6
  8
DRAFT
  0
POLYLINE
  5
4D7
  8
DRAFT
 66
     1
 10
0.0
 20
0.0
 30
0.0
  0
VERTEX
  5
4D8
  8
DRAFT
 10
-771.1801541814285
 20
-34.88599625995791
 30
0.0
 42
-0.2214556596391074
  0
VERTEX
  5
4D9
  8
DRAFT
 10
-771.2793529638739
 20
-34.84993128734644
 30
0.0
  0
VERTEX
  5
4DA
  8
DRAFT
 10
-771.5801825393017
 20
-34.54959201687142
 30
0.0
 42
0.2214558605037897
  0
VERTEX
  5
4DB
  8
DRAFT
 10
-771.6297819782077
 20
-34.53155953473279
 30
0.0
  0
VERTEX
  5
4DC
  8
DRAFT
 10
-771.6746483499361
 20
-34.53548054231872
 30
0.0
 42
-0.1622776624674004
  0
VERTEX
  5
4DD
  8
DRAFT
 10
-771.7130942264403
 20
-34.52629279929507
 30
0.0
  0
VERTEX
  5
4DE
  8
DRAFT
 10
-771.7219400529312
 20
-34.52079203881438
 30
0.0
 42
1.98925326509835
  0
VERTEX
  5
4DF
  8
DRAFT
 10
-771.7136679600497
 20
-34.62040251960823
 30
0.0
  0
VERTEX
  5
4E0
  8
DRAFT
 10
-771.7056426100033
 20
-34.61328409881892
 30
0.0
 42
-0.1609716664636211
  0
VERTEX
  5
4E1
  8
DRAFT
 10
-771.6696107647368
 20
-34.59777851166988
 30
0.0
  0
VERTEX
  5
4E2
  8
DRAFT
 10
-771.6508139560616
 20
-34.59613580185009
 30
0.0
 42
-0.226170571414317
  0
VERTEX
  5
4E3
  8
DRAFT
 10
-771.6004273418973
 20
-34.61496841835144
 30
0.0
  0
VERTEX
  5
4E4
  8
DRAFT
 10
-771.5084043743278
 20
-34.71020195333374
 30
0.0
 42
-0.6310947064775567
  0
VERTEX
  5
4E5
  8
DRAFT
 10
-771.5874124023336
 20
-34.92158747029044
 30
0.0
  0
SEQEND
  5
4E6
  8
DRAFT
  0
POLYLINE
  5
4E7
  8
DRAFT
 66
     1
 10
0.0
 20
0.0
 30
0.0
  0
VERTEX
  5
4E8
  8
DRAFT
 10
-770.1883985314452
 20
-34.79932450694132
 30
0.0
 42
-0.2214552436089364
  0
VERTEX
  5
4E9
  8
DRAFT
 10
-770.2875971735638
 20
-34.76325967442749
 30
0.0
  0
VERTEX
  5
4EA
  8
DRAFT
 10
-770.5884388266177
 20
-34.46290929891884
 30
0.0
 42
0.2214558604973076
  0
VERTEX
  5
4EB
  8
DRAFT
 10
-770.6380382655243
 20
-34.44487681678068
 30
0.0
  0
VERTEX
  5
4EC
  8
DRAFT
 10
-770.6829046372527
 20
-34.44879782436658
 30
0.0
 42
-0.1622776624605891
  0
VERTEX
  5
4ED
  8
DRAFT
 10
-770.7213505137565
 20
-34.4396100813429
 30
0.0
  0
VERTEX
  5
4EE
  8
DRAFT
 10
-770.7301963402483
 20
-34.43410932086268
 30
0.0
 42
1.989253265122871
  0
VERTEX
  5
4EF
  8
DRAFT
 10
-770.7219242473661
 20
-34.53371980165585
 30
0.0
  0
VERTEX
  5
4F0
  8
DRAFT
 10
-770.7138988973198
 20
-34.52660138086681
 30
0.0
 42
-0.1609716664603635
  0
VERTEX
  5
4F1
  8
DRAFT
 10
-770.6778670520533
 20
-34.51109579371737
 30
0.0
  0
VERTEX
  5
4F2
  8
DRAFT
 10
-770.659070243378
 20
-34.50945308389795
 30
0.0
 42
-0.2261705714021309
  0
VERTEX
  5
4F3
  8
DRAFT
 10
-770.6086836292142
 20
-34.52828570039937
 30
0.0
  0
VERTEX
  5
4F4
  8
DRAFT
 10
-770.5166499618612
 20
-34.62353030846636
 30
0.0
 42
-0.6310947064880907
  0
VERTEX
  5
4F5
  8
DRAFT
 10
-770.5956579898678
 20
-34.83491582542252
 30
0.0
  0
SEQEND
  5
4F6
  8
DRAFT
  0
POLYLINE
  5
4F7
  8
DRAFT
 66
     1
 10
0.0
 20
0.0
 30
0.0
  0
VERTEX
  5
4F8
  8
DRAFT
 10
-771.8440975876491
 20
-34.94401976496344
 30
0.0
 42
-0.4141732650308169
  0
VERTEX
  5
4F9
  8
DRAFT
 10
-772.2503168871349
 20
-34.60314268337785
 30
0.0
  0
VERTEX
  5
4FA
  8
DRAFT
 10
-772.3157448035714
 20
-33.85565889397351
 30
0.0
 42
-0.4142489508375627
  0
VERTEX
  5
4FB
  8
DRAFT
 10
-771.974827081363
 20
-33.44938424801968
 30
0.0
  0
SEQEND
  5
4FC
  8
DRAFT
  0
LINE
  5
4FD
  8
DRAFT
 10
-779.7288258377854
 20
-25.11531986188481
 30
0.0
 11
-779.7442668576656
 21
-25.29181152672356
 31
0.0
  0
POLYLINE
  5
4FE
  8
DRAFT
 66
     1
 10
0.0
 20
0.0
 30
0.0
  0
VERTEX
  5
4FF
  8
DRAFT
 10
-781.3950626734423
 20
-25.46614664971217
 30
0.0
 42
-0.1738231549313807
  0
VERTEX
  5
500
  8
DRAFT
 10
-781.4639682669889
 20
-25.41747357491346
 30
0.0
  0
VERTEX
  5
501
  8
DRAFT
 10
-781.7315448230036
 20
-25.03593050211269
 30
0.0
 42
0.221455860505892
  0
VERTEX
  5
502
  8
DRAFT
 10
-781.7772572172897
 20
-25.00955529101327
 30
0.0
  0
VERTEX
  5
503
  8
DRAFT
 10
-781.8221225143949
 20
-25.00562200635447
 30
0.0
 42
-0.1622776624703947
  0
VERTEX
  5
504
  8
DRAFT
 10
-781.8583875590281
 20
-24.98989475040174
 30
0.0
  0
VERTEX
  5
505
  8
DRAFT
 10
-781.8661432178084
 20
-24.98294084724913
 30
0.0
 42
2.013858596075452
  0
VERTEX
  5
506
  8
DRAFT
 10
-781.8753023157657
 20
-25.08247368770458
 30
0.0
  0
VERTEX
  5
507
  8
DRAFT
 10
-781.8661623173854
 20
-25.07685776502777
 30
0.0
 42
-0.1609716664681962
  0
VERTEX
  5
508
  8
DRAFT
 10
-781.8279846047079
 20
-25.06784780604469
 30
0.0
  0
VERTEX
  5
509
  8
DRAFT
 10
-781.8091882462471
 20
-25.06949565935527
 30
0.0
 42
-0.226170571414149
  0
VERTEX
  5
50A
  8
DRAFT
 10
-781.762839655025
 20
-25.09679559384271
 30
0.0
  0
VERTEX
  5
50B
  8
DRAFT
 10
-781.688813237176
 20
-25.20649081515316
 30
0.0
 42
-0.6310043784596759
  0
VERTEX
  5
50C
  8
DRAFT
 10
-781.8033117820872
 20
-25.40093853110365
 30
0.0
  0
SEQEND
  5
50D
  8
DRAFT
  0
POLYLINE
  5
50E
  8
DRAFT
 66
     1
 10
0.0
 20
0.0
 30
0.0
  0
VERTEX
  5
50F
  8
DRAFT
 10
-782.3876827332246
 20
-25.34985917071852
 30
0.0
 42
-0.2215234308527884
  0
VERTEX
  5
510
  8
DRAFT
 10
-782.4791396043684
 20
-25.297105940045
 30
0.0
  0
VERTEX
  5
511
  8
DRAFT
 10
-782.7232667350278
 20
-24.94899872167864
 30
0.0
 42
0.2214558604992493
  0
VERTEX
  5
512
  8
DRAFT
 10
-782.7689791293141
 20
-24.92262351057943
 30
0.0
  0
VERTEX
  5
513
  8
DRAFT
 10
-782.8138444264192
 20
-24.91869022592053
 30
0.0
 42
-0.1622776624572869
  0
VERTEX
  5
514
  8
DRAFT
 10
-782.850109471052
 20
-24.90296296996784
 30
0.0
  0
VERTEX
  5
515
  8
DRAFT
 10
-782.8578651298327
 20
-24.89600906681528
 30
0.0
 42
2.013858595981047
  0
VERTEX
  5
516
  8
DRAFT
 10
-782.8670242277892
 20
-24.99554190727067
 30
0.0
  0
VERTEX
  5
517
  8
DRAFT
 10
-782.8578842294095
 20
-24.98992598459397
 30
0.0
 42
-0.1609716664675365
  0
VERTEX
  5
518
  8
DRAFT
 10
-782.8197065167323
 20
-24.98091602561059
 30
0.0
  0
VERTEX
  5
519
  8
DRAFT
 10
-782.8009101582714
 20
-24.98256387892148
 30
0.0
 42
-0.2261705714026752
  0
VERTEX
  5
51A
  8
DRAFT
 10
-782.7545615670498
 20
-25.00986381340909
 30
0.0
  0
VERTEX
  5
51B
  8
DRAFT
 10
-782.6803585722107
 20
-25.11982069336163
 30
0.0
 42
-0.6310043784679068
  0
VERTEX
  5
51C
  8
DRAFT
 10
-782.7948571171215
 20
-25.31426840931255
 30
0.0
  0
SEQEND
  5
51D
  8
DRAFT
  0
POLYLINE
  5
51E
  8
DRAFT
 66
     1
 10
0.0
 20
0.0
 30
0.0
 70
     1
  0
VERTEX
  5
51F
  8
DRAFT
 10
-780.8485467432625
 20
-24.44790706048872
 30
0.0
 42
0.4142135623763062
  0
VERTEX
  5
520
  8
DRAFT
 10
-780.8769527921123
 20
-24.41405116899608
 30
0.0
  0
VERTEX
  5
521
  8
DRAFT
 10
-781.2944013866397
 20
-24.37751152473026
 30
0.0
 42
0.4142135623635478
  0
VERTEX
  5
522
  8
DRAFT
 10
-781.3282572781322
 20
-24.4059175735803
 30
0.0
  0
VERTEX
  5
523
  8
DRAFT
 10
-781.3757087375053
 20
-24.94802862641966
 30
0.0
 42
0.4142135623692323
  0
VERTEX
  5
524
  8
DRAFT
 10
-781.3473026886555
 20
-24.98188451791225
 30
0.0
  0
VERTEX
  5
525
  8
DRAFT
 10
-780.9298540941278
 20
-25.01842416217821
 30
0.0
 42
0.4142135623502104
  0
VERTEX
  5
526
  8
DRAFT
 10
-780.8959982026361
 20
-24.99001811332782
 30
0.0
  0
SEQEND
  5
527
  8
DRAFT
  0
POLYLINE
  5
528
  8
DRAFT
 66
     1
 10
0.0
 20
0.0
 30
0.0
 70
     1
  0
VERTEX
  5
529
  8
DRAFT
 10
-779.7442668576656
 20
-25.29181152672356
 30
0.0
  0
VERTEX
  5
52A
  8
DRAFT
 10
-779.6800795326304
 20
-24.55814704440224
 30
0.0
 42
0.4142135330756005
  0
VERTEX
  5
52B
  8
DRAFT
 10
-779.708486996872
 20
-24.52429234339843
 30
0.0
  0
VERTEX
  5
52C
  8
DRAFT
 10
-780.234528779739
 20
-24.47826959784754
 30
0.0
 42
0.4142135777547429
  0
VERTEX
  5
52D
  8
DRAFT
 10
-780.2683834839991
 20
-24.50667706345444
 30
0.0
  0
VERTEX
  5
52E
  8
DRAFT
 10
-780.3325708440817
 20
-25.24034154595265
 30
0.0
 42
1.000000000089718
  0
VERTEX
  5
52F
  8
DRAFT
 10
-780.2927230561581
 20
-25.24382777566247
 30
0.0
  0
VERTEX
  5
530
  8
DRAFT
 10
-780.2800056259886
 20
-25.09846721852577
 30
0.0
 42
-0.4142135183849558
  0
VERTEX
  5
531
  8
DRAFT
 10
-780.2461509237056
 20
-25.07005975753331
 30
0.0
  0
VERTEX
  5
532
  8
DRAFT
 10
-779.7998047083375
 20
-25.10911001379996
 30
0.0
 42
-0.41421354780039
  0
VERTEX
  5
533
  8
DRAFT
 10
-779.7713972425339
 20
-25.1429647149404
 30
0.0
  0
VERTEX
  5
534
  8
DRAFT
 10
-779.7841146455895
 20
-25.28832529701355
 30
0.0
 42
1.000000000045996
  0
SEQEND
  5
535
  8
DRAFT
  0
POLYLINE
  5
536
  8
DRAFT
 66
     1
 10
0.0
 20
0.0
 30
0.0
  0
VERTEX
  5
537
  8
DRAFT
 10
-782.1873517902769
 20
-24.26184131028562
 30
0.0
  0
VERTEX
  5
538
  8
DRAFT
 10
-782.2121391520874
 20
-24.25967506884255
 30
0.0
 42
0.1624911418144316
  0
VERTEX
  5
539
  8
DRAFT
 10
-782.2878534855205
 20
-24.27732737461289
 30
0.0
 42
0.0901239739884271
  0
VERTEX
  5
53A
  8
DRAFT
 10
-782.4224855321503
 20
-24.39804995243827
 30
0.0
 42
0.2945408183606534
  0
VERTEX
  5
53B
  8
DRAFT
 10
-782.4564087112243
 20
-24.78621814549193
 30
0.0
 42
0.0931204833721183
  0
VERTEX
  5
53C
  8
DRAFT
 10
-782.3447582697605
 20
-24.92846408637459
 30
0.0
 42
0.1594425821345483
  0
VERTEX
  5
53D
  8
DRAFT
 10
-782.2732537013716
 20
-24.95898229218282
 30
0.0
  0
VERTEX
  5
53E
  8
DRAFT
 10
-782.2484663395998
 20
-24.96114853406914
 30
0.0
  0
SEQEND
  5
53F
  8
DRAFT
  0
LINE
  5
540
  8
DRAFT
 10
-769.4207120601037
 20
-25.11531986188523
 30
0.0
 11
-769.4052710402235
 21
-25.29181152672398
 31
0.0
  0
POLYLINE
  5
541
  8
DRAFT
 66
     1
 10
0.0
 20
0.0
 30
0.0
  0
VERTEX
  5
542
  8
DRAFT
 10
-767.7544752244468
 20
-25.46614664971273
 30
0.0
 42
0.1738231549302162
  0
VERTEX
  5
543
  8
DRAFT
 10
-767.6855696309004
 20
-25.41747357491402
 30
0.0
  0
VERTEX
  5
544
  8
DRAFT
 10
-767.4179930748858
 20
-25.03593050211324
 30
0.0
 42
-0.2214558605082987
  0
VERTEX
  5
545
  8
DRAFT
 10
-767.3722806805994
 20
-25.00955529101402
 30
0.0
  0
VERTEX
  5
546
  8
DRAFT
 10
-767.3274153834942
 20
-25.00562200635495
 30
0.0
 42
0.1622776624639311
  0
VERTEX
  5
547
  8
DRAFT
 10
-767.291150338861
 20
-24.9898947504023
 30
0.0
  0
VERTEX
  5
548
  8
DRAFT
 10
-767.2833946800807
 20
-24.9829408472497
 30
0.0
 42
-2.013858596087295
  0
VERTEX
  5
549
  8
DRAFT
 10
-767.2742355821234
 20
-25.08247368770528
 30
0.0
  0
VERTEX
  5
54A
  8
DRAFT
 10
-767.2833755805037
 20
-25.07685776502835
 30
0.0
 42
0.1609716664663272
  0
VERTEX
  5
54B
  8
DRAFT
 10
-767.3215532931812
 20
-25.0678478060453
 30
0.0
  0
VERTEX
  5
54C
  8
DRAFT
 10
-767.340349651642
 20
-25.06949565935581
 30
0.0
 42
0.2261705714138409
  0
VERTEX
  5
54D
  8
DRAFT
 10
-767.3866982428642
 20
-25.09679559384319
 30
0.0
  0
VERTEX
  5
54E
  8
DRAFT
 10
-767.4607246607131
 20
-25.20649081515366
 30
0.0
 42
0.6310043784633121
  0
VERTEX
  5
54F
  8
DRAFT
 10
-767.3462261158019
 20
-25.40093853110418
 30
0.0
  0
SEQEND
  5
550
  8
DRAFT
  0
POLYLINE
  5
551
  8
DRAFT
 66
     1
 10
0.0
 20
0.0
 30
0.0
  0
VERTEX
  5
552
  8
DRAFT
 10
-766.7618551646646
 20
-25.34985917071914
 30
0.0
 42
0.2215234308534456
  0
VERTEX
  5
553
  8
DRAFT
 10
-766.6703982935206
 20
-25.29710594004574
 30
0.0
  0
VERTEX
  5
554
  8
DRAFT
 10
-766.4262711628613
 20
-24.94899872167927
 30
0.0
 42
-0.2214558604966507
  0
VERTEX
  5
555
  8
DRAFT
 10
-766.380558768575
 20
-24.92262351057993
 30
0.0
  0
VERTEX
  5
556
  8
DRAFT
 10
-766.3356934714698
 20
-24.91869022592137
 30
0.0
 42
0.1622776624522155
  0
VERTEX
  5
557
  8
DRAFT
 10
-766.2994284268373
 20
-24.90296296996845
 30
0.0
  0
VERTEX
  5
558
  8
DRAFT
 10
-766.2916727680563
 20
-24.89600906681595
 30
0.0
 42
-2.013858595983252
  0
VERTEX
  5
559
  8
DRAFT
 10
-766.2825136700998
 20
-24.99554190727147
 30
0.0
  0
VERTEX
  5
55A
  8
DRAFT
 10
-766.2916536684796
 20
-24.98992598459455
 30
0.0
 42
0.1609716664694325
  0
VERTEX
  5
55B
  8
DRAFT
 10
-766.3298313811569
 20
-24.98091602561132
 30
0.0
  0
VERTEX
  5
55C
  8
DRAFT
 10
-766.3486277396177
 20
-24.98256387892215
 30
0.0
 42
0.2261705714035842
  0
VERTEX
  5
55D
  8
DRAFT
 10
-766.3949763308394
 20
-25.00986381340975
 30
0.0
  0
VERTEX
  5
55E
  8
DRAFT
 10
-766.4691793256785
 20
-25.11982069336229
 30
0.0
 42
0.631004378463903
  0
VERTEX
  5
55F
  8
DRAFT
 10
-766.3546807807676
 20
-25.31426840931293
 30
0.0
  0
SEQEND
  5
560
  8
DRAFT
  0
POLYLINE
  5
561
  8
DRAFT
 66
     1
 10
0.0
 20
0.0
 30
0.0
 70
     1
  0
VERTEX
  5
562
  8
DRAFT
 10
-768.3009911546266
 20
-24.44790706048923
 30
0.0
 42
-0.4142135623677552
  0
VERTEX
  5
563
  8
DRAFT
 10
-768.2725851057767
 20
-24.4140511689966
 30
0.0
  0
VERTEX
  5
564
  8
DRAFT
 10
-767.8551365112493
 20
-24.37751152473094
 30
0.0
 42
-0.4142135623661061
  0
VERTEX
  5
565
  8
DRAFT
 10
-767.8212806197569
 20
-24.40591757358085
 30
0.0
  0
VERTEX
  5
566
  8
DRAFT
 10
-767.7738291603838
 20
-24.94802862642021
 30
0.0
 42
-0.4142135623751222
  0
VERTEX
  5
567
  8
DRAFT
 10
-767.8022352092336
 20
-24.98188451791275
 30
0.0
  0
VERTEX
  5
568
  8
DRAFT
 10
-768.2196838037614
 20
-25.01842416217844
 30
0.0
 42
-0.4142135623528046
  0
VERTEX
  5
569
  8
DRAFT
 10
-768.2535396952528
 20
-24.99001811332832
 30
0.0
  0
SEQEND
  5
56A
  8
DRAFT
  0
POLYLINE
  5
56B
  8
DRAFT
 66
     1
 10
0.0
 20
0.0
 30
0.0
 70
     1
  0
VERTEX
  5
56C
  8
DRAFT
 10
-769.4052710402235
 20
-25.29181152672398
 30
0.0
  0
VERTEX
  5
56D
  8
DRAFT
 10
-769.4694583652587
 20
-24.55814704440265
 30
0.0
 42
-0.41421353308364
  0
VERTEX
  5
56E
  8
DRAFT
 10
-769.4410509010171
 20
-24.52429234339913
 30
0.0
  0
VERTEX
  5
56F
  8
DRAFT
 10
-768.9150091181501
 20
-24.47826959784803
 30
0.0
 42
-0.4142135777583724
  0
VERTEX
  5
570
  8
DRAFT
 10
-768.88115441389
 20
-24.5066770634549
 30
0.0
  0
VERTEX
  5
571
  8
DRAFT
 10
-768.8169670538074
 20
-25.24034154595311
 30
0.0
 42
-1.000000000069252
  0
VERTEX
  5
572
  8
DRAFT
 10
-768.8568148417311
 20
-25.24382777566295
 30
0.0
  0
VERTEX
  5
573
  8
DRAFT
 10
-768.8695322719005
 20
-25.09846721852623
 30
0.0
 42
0.4142135183928644
  0
VERTEX
  5
574
  8
DRAFT
 10
-768.9033869741835
 20
-25.07005975753384
 30
0.0
  0
VERTEX
  5
575
  8
DRAFT
 10
-769.3497331895516
 20
-25.10911001380039
 30
0.0
 42
0.4142135477996833
  0
VERTEX
  5
576
  8
DRAFT
 10
-769.3781406553552
 20
-25.14296471494082
 30
0.0
  0
VERTEX
  5
577
  8
DRAFT
 10
-769.3654232522996
 20
-25.28832529701397
 30
0.0
 42
-1.000000000030589
  0
SEQEND
  5
578
  8
DRAFT
  0
POLYLINE
  5
579
  8
DRAFT
 66
     1
 10
0.0
 20
0.0
 30
0.0
  0
VERTEX
  5
57A
  8
DRAFT
 10
-766.9621861076122
 20
-24.26184131028623
 30
0.0
  0
VERTEX
  5
57B
  8
DRAFT
 10
-766.9373987458017
 20
-24.25967506884314
 30
0.0
 42
-0.162491141817542
  0
VERTEX
  5
57C
  8
DRAFT
 10
-766.8616844123685
 20
-24.27732737461338
 30
0.0
 42
-0.0901239739846275
  0
VERTEX
  5
57D
  8
DRAFT
 10
-766.7270523657386
 20
-24.39804995243891
 30
0.0
 42
-0.2945408183592047
  0
VERTEX
  5
57E
  8
DRAFT
 10
-766.6931291866648
 20
-24.78621814549258
 30
0.0
 42
-0.0931204833722407
  0
VERTEX
  5
57F
  8
DRAFT
 10
-766.8047796281286
 20
-24.92846408637525
 30
0.0
 42
-0.1594425821315133
  0
VERTEX
  5
580
  8
DRAFT
 10
-766.8762841965176
 20
-24.95898229218325
 30
0.0
  0
VERTEX
  5
581
  8
DRAFT
 10
-766.9010715582893
 20
-24.96114853406976
 30
0.0
  0
SEQEND
  5
582
  8
DRAFT
  0
POLYLINE
  5
583
  8
DRAFT
 66
     1
 10
0.0
 20
0.0
 30
0.0
  0
VERTEX
  5
584
  8
DRAFT
 10
-766.0979208701257
 20
-25.29182524716978
 30
0.0
 42
0.4142489508360245
  0
VERTEX
  5
585
  8
DRAFT
 10
-765.7570031479177
 20
-24.88555060121576
 30
0.0
  0
VERTEX
  5
586
  8
DRAFT
 10
-765.8224310643537
 20
-24.13806681181147
 30
0.0
 42
0.4141732650309832
  0
VERTEX
  5
587
  8
DRAFT
 10
-766.2286503638392
 20
-23.79718973022529
 30
0.0
  0
VERTEX
  5
588
  8
DRAFT
 10
-766.4853355491547
 20
-23.81962202489935
 30
0.0
 42
0.6310947064815711
  0
VERTEX
  5
589
  8
DRAFT
 10
-766.5643435771605
 20
-24.03100754185566
 30
0.0
  0
VERTEX
  5
58A
  8
DRAFT
 10
-766.4723206095912
 20
-24.12624107683792
 30
0.0
 42
0.2261705714017973
  0
VERTEX
  5
58B
  8
DRAFT
 10
-766.4219339954268
 20
-24.14507369333928
 30
0.0
  0
VERTEX
  5
58C
  8
DRAFT
 10
-766.4031371867517
 20
-24.14343098351953
 30
0.0
 42
0.1609716664634107
  0
VERTEX
  5
58D
  8
DRAFT
 10
-766.3671053414851
 20
-24.12792539637042
 30
0.0
  0
VERTEX
  5
58E
  8
DRAFT
 10
-766.3590799914385
 20
-24.12080697558118
 30
0.0
 42
-2.022848026538879
  0
VERTEX
  5
58F
  8
DRAFT
 10
-766.3508078985565
 20
-24.220417456374
 30
0.0
  0
VERTEX
  5
590
  8
DRAFT
 10
-766.3596537250481
 20
-24.21491669589412
 30
0.0
 42
0.1622776624659883
  0
VERTEX
  5
591
  8
DRAFT
 10
-766.3980996015524
 20
-24.20572895287032
 30
0.0
  0
VERTEX
  5
592
  8
DRAFT
 10
-766.4429659732806
 20
-24.20964996045667
 30
0.0
 42
-0.2214558604942276
  0
VERTEX
  5
593
  8
DRAFT
 10
-766.4925654121871
 20
-24.19161747831805
 30
0.0
  0
VERTEX
  5
594
  8
DRAFT
 10
-766.7933949876148
 20
-23.89127820784297
 30
0.0
 42
0.2214556596417792
  0
VERTEX
  5
595
  8
DRAFT
 10
-766.89259377006
 20
-23.85521323523081
 30
0.0
  0
VERTEX
  5
596
  8
DRAFT
 10
-767.4770899616207
 20
-23.90629366976671
 30
0.0
 42
0.6310947064833125
  0
VERTEX
  5
597
  8
DRAFT
 10
-767.5560979896276
 20
-24.11767918672312
 30
0.0
  0
VERTEX
  5
598
  8
DRAFT
 10
-767.4640643222746
 20
-24.21292379479015
 30
0.0
 42
0.2261705714155425
  0
VERTEX
  5
599
  8
DRAFT
 10
-767.4136777081102
 20
-24.23175641129087
 30
0.0
  0
VERTEX
  5
59A
  8
DRAFT
 10
-767.3948808994352
 20
-24.23011370147167
 30
0.0
 42
0.160971666482081
  0
VERTEX
  5
59B
  8
DRAFT
 10
-767.3588490541683
 20
-24.2146081143226
 30
0.0
  0
VERTEX
  5
59C
  8
DRAFT
 10
-767.350823704122
 20
-24.20748969353336
 30
0.0
 42
-2.022848026499698
  0
VERTEX
  5
59D
  8
DRAFT
 10
-767.3425516112404
 20
-24.30710017432608
 30
0.0
  0
VERTEX
  5
59E
  8
DRAFT
 10
-767.3513974377319
 20
-24.30159941384634
 30
0.0
 42
0.1622776624785512
  0
VERTEX
  5
59F
  8
DRAFT
 10
-767.3898433142357
 20
-24.29241167082264
 30
0.0
  0
VERTEX
  5
5A0
  8
DRAFT
 10
-767.4347096859641
 20
-24.29633267840875
 30
0.0
 42
-0.2214558605004292
  0
VERTEX
  5
5A1
  8
DRAFT
 10
-767.4843091248699
 20
-24.27830019627003
 30
0.0
  0
VERTEX
  5
5A2
  8
DRAFT
 10
-767.7851507779245
 20
-23.97794982076157
 30
0.0
 42
0.2214552436094885
  0
VERTEX
  5
5A3
  8
DRAFT
 10
-767.884349420043
 20
-23.94188498824754
 30
0.0
  0
VERTEX
  5
5A4
  8
DRAFT
 10
-772.3921041242769
 20
-24.3358503563696
 30
0.0
 42
-0.0436214061426968
  0
VERTEX
  5
5A5
  8
DRAFT
 10
-776.7574345793224
 20
-24.33585035636952
 30
0.0
  0
VERTEX
  5
5A6
  8
DRAFT
 10
-781.2651884778459
 20
-23.94188498824696
 30
0.0
 42
0.2214552436104017
  0
VERTEX
  5
5A7
  8
DRAFT
 10
-781.3643871199646
 20
-23.97794982076101
 30
0.0
  0
VERTEX
  5
5A8
  8
DRAFT
 10
-781.6652287730186
 20
-24.27830019626948
 30
0.0
 42
-0.2214558604964287
  0
VERTEX
  5
5A9
  8
DRAFT
 10
-781.714828211925
 20
-24.29633267840817
 30
0.0
  0
VERTEX
  5
5AA
  8
DRAFT
 10
-781.7596945836534
 20
-24.29241167082203
 30
0.0
 42
0.1622776624759804
  0
VERTEX
  5
5AB
  8
DRAFT
 10
-781.798140460157
 20
-24.30159941384584
 30
0.0
  0
VERTEX
  5
5AC
  8
DRAFT
 10
-781.8069862866483
 20
-24.30710017432632
 30
0.0
 42
-1.98925326522601
  0
VERTEX
  5
5AD
  8
DRAFT
 10
-781.7987141937671
 20
-24.20748969353278
 30
0.0
  0
VERTEX
  5
5AE
  8
DRAFT
 10
-781.7906888437207
 20
-24.21460811432196
 30
0.0
 42
0.1609716664816511
  0
VERTEX
  5
5AF
  8
DRAFT
 10
-781.7546569984539
 20
-24.23011370147114
 30
0.0
  0
VERTEX
  5
5B0
  8
DRAFT
 10
-781.7358601897787
 20
-24.2317564112907
 30
0.0
 42
0.2261705714095903
  0
VERTEX
  5
5B1
  8
DRAFT
 10
-781.6854735756143
 20
-24.21292379478952
 30
0.0
  0
VERTEX
  5
5B2
  8
DRAFT
 10
-781.5934399082622
 20
-24.11767918672218
 30
0.0
 42
0.6310947064826786
  0
VERTEX
  5
5B3
  8
DRAFT
 10
-781.6724479362684
 20
-23.90629366976607
 30
0.0
  0
VERTEX
  5
5B4
  8
DRAFT
 10
-782.2569441278291
 20
-23.85521323523034
 30
0.0
 42
0.2214556596434637
  0
VERTEX
  5
5B5
  8
DRAFT
 10
-782.3561429102743
 20
-23.8912782078424
 30
0.0
  0
VERTEX
  5
5B6
  8
DRAFT
 10
-782.6569724857023
 20
-24.19161747831726
 30
0.0
 42
-0.2214558604915822
  0
VERTEX
  5
5B7
  8
DRAFT
 10
-782.7065719246083
 20
-24.20964996045587
 30
0.0
  0
VERTEX
  5
5B8
  8
DRAFT
 10
-782.7514382963369
 20
-24.20572895286979
 30
0.0
 42
0.1622776624683299
  0
VERTEX
  5
5B9
  8
DRAFT
 10
-782.7898841728407
 20
-24.21491669589343
 30
0.0
  0
VERTEX
  5
5BA
  8
DRAFT
 10
-782.7987299993321
 20
-24.22041745637394
 30
0.0
 42
-1.989253265107214
  0
VERTEX
  5
5BB
  8
DRAFT
 10
-782.7904579064506
 20
-24.12080697558056
 30
0.0
  0
VERTEX
  5
5BC
  8
DRAFT
 10
-782.7824325564038
 20
-24.12792539636971
 30
0.0
 42
0.1609716664618771
  0
VERTEX
  5
5BD
  8
DRAFT
 10
-782.7464007111372
 20
-24.14343098351882
 30
0.0
  0
VERTEX
  5
5BE
  8
DRAFT
 10
-782.7276039024624
 20
-24.14507369333842
 30
0.0
 42
0.2261705714073275
  0
VERTEX
  5
5BF
  8
DRAFT
 10
-782.6772172882978
 20
-24.12624107683726
 30
0.0
  0
VERTEX
  5
5C0
  8
DRAFT
 10
-782.5851943207284
 20
-24.03100754185491
 30
0.0
 42
0.6310947064791301
  0
VERTEX
  5
5C1
  8
DRAFT
 10
-782.6642023487343
 20
-23.81962202489864
 30
0.0
  0
VERTEX
  5
5C2
  8
DRAFT
 10
-782.92088753405
 20
-23.79718973022465
 30
0.0
 42
0.4141732650305908
  0
VERTEX
  5
5C3
  8
DRAFT
 10
-783.3271068335354
 20
-24.13806681181076
 30
0.0
  0
VERTEX
  5
5C4
  8
DRAFT
 10
-783.3925347499722
 20
-24.88555060121503
 30
0.0
 42
0.4142489508365947
  0
VERTEX
  5
5C5
  8
DRAFT
 10
-783.0516170277634
 20
-25.29182524716911
 30
0.0
  0
SEQEND
  5
5C6
  8
DRAFT
  0
POLYLINE
  5
5C7
  8
DRAFT
 66
     1
 10
0.0
 20
0.0
 30
0.0
  0
VERTEX
  5
5C8
  8
DRAFT
 10
-767.9218056345386
 20
-21.2408899845854
 30
0.0
 42
-0.4142489508361852
  0
VERTEX
  5
5C9
  8
DRAFT
 10
-767.5808879123305
 20
-21.64716463053943
 30
0.0
  0
VERTEX
  5
5CA
  8
DRAFT
 10
-767.6463158287667
 20
-22.39464841994371
 30
0.0
 42
-0.4141732650311133
  0
VERTEX
  5
5CB
  8
DRAFT
 10
-768.0525351282521
 20
-22.73552550152996
 30
0.0
  0
VERTEX
  5
5CC
  8
DRAFT
 10
-768.3092203135676
 20
-22.71309320685584
 30
0.0
 42
-0.6310947064794651
  0
VERTEX
  5
5CD
  8
DRAFT
 10
-768.3882283415735
 20
-22.50170768989952
 30
0.0
  0
VERTEX
  5
5CE
  8
DRAFT
 10
-768.2962053740039
 20
-22.40647415491734
 30
0.0
 42
-0.2261705714044214
  0
VERTEX
  5
5CF
  8
DRAFT
 10
-768.2458187598398
 20
-22.38764153841588
 30
0.0
  0
VERTEX
  5
5D0
  8
DRAFT
 10
-768.2270219511646
 20
-22.3892842482357
 30
0.0
 42
-0.1609716664638363
  0
VERTEX
  5
5D1
  8
DRAFT
 10
-768.190990105898
 20
-22.40478983538478
 30
0.0
  0
VERTEX
  5
5D2
  8
DRAFT
 10
-768.1829647558515
 20
-22.411908256174
 30
0.0
 42
2.022848026542277
  0
VERTEX
  5
5D3
  8
DRAFT
 10
-768.1746926629693
 20
-22.31229777538132
 30
0.0
  0
VERTEX
  5
5D4
  8
DRAFT
 10
-768.1835384894611
 20
-22.31779853586104
 30
0.0
 42
-0.1622776624632002
  0
VERTEX
  5
5D5
  8
DRAFT
 10
-768.2219843659653
 20
-22.32698627888481
 30
0.0
  0
VERTEX
  5
5D6
  8
DRAFT
 10
-768.2668507376935
 20
-22.32306527129856
 30
0.0
 42
0.2214558604926257
  0
VERTEX
  5
5D7
  8
DRAFT
 10
-768.3164501765999
 20
-22.34109775343724
 30
0.0
  0
VERTEX
  5
5D8
  8
DRAFT
 10
-768.6172797520277
 20
-22.64143702391223
 30
0.0
 42
-0.2214556596429544
  0
VERTEX
  5
5D9
  8
DRAFT
 10
-768.7164785344729
 20
-22.67750199652428
 30
0.0
  0
VERTEX
  5
5DA
  8
DRAFT
 10
-769.3009747260336
 20
-22.62642156198847
 30
0.0
 42
-0.6310947064858128
  0
VERTEX
  5
5DB
  8
DRAFT
 10
-769.3799827540403
 20
-22.41503604503218
 30
0.0
  0
VERTEX
  5
5DC
  8
DRAFT
 10
-769.2879490866875
 20
-22.31979143696507
 30
0.0
 42
-0.2261705714144362
  0
VERTEX
  5
5DD
  8
DRAFT
 10
-769.2375624725231
 20
-22.30095882046425
 30
0.0
  0
VERTEX
  5
5DE
  8
DRAFT
 10
-769.2187656638481
 20
-22.30260153028352
 30
0.0
 42
-0.160971666485705
  0
VERTEX
  5
5DF
  8
DRAFT
 10
-769.1827338185813
 20
-22.31810711743257
 30
0.0
  0
VERTEX
  5
5E0
  8
DRAFT
 10
-769.174708468535
 20
-22.32522553822182
 30
0.0
 42
2.022848026491024
  0
VERTEX
  5
5E1
  8
DRAFT
 10
-769.1664363756532
 20
-22.22561505742913
 30
0.0
  0
VERTEX
  5
5E2
  8
DRAFT
 10
-769.1752822021448
 20
-22.23111581790895
 30
0.0
 42
-0.1622776624773777
  0
VERTEX
  5
5E3
  8
DRAFT
 10
-769.2137280786486
 20
-22.2403035609324
 30
0.0
  0
VERTEX
  5
5E4
  8
DRAFT
 10
-769.258594450377
 20
-22.23638255334643
 30
0.0
 42
0.2214558605005331
  0
VERTEX
  5
5E5
  8
DRAFT
 10
-769.308193889283
 20
-22.25441503548515
 30
0.0
  0
VERTEX
  5
5E6
  8
DRAFT
 10
-769.6090355423374
 20
-22.55476541099361
 30
0.0
 42
-0.2214552436112401
  0
VERTEX
  5
5E7
  8
DRAFT
 10
-769.7082341844559
 20
-22.59083024350752
 30
0.0
  0
VERTEX
  5
5E8
  8
DRAFT
 10
-774.2159888886898
 20
-22.19686487538558
 30
0.0
 42
0.0436214061426968
  0
VERTEX
  5
5E9
  8
DRAFT
 10
-778.5813193437353
 20
-22.19686487538566
 30
0.0
  0
VERTEX
  5
5EA
  8
DRAFT
 10
-783.0890732422588
 20
-22.59083024350822
 30
0.0
 42
-0.2214552436101227
  0
VERTEX
  5
5EB
  8
DRAFT
 10
-783.1882718843775
 20
-22.55476541099411
 30
0.0
  0
VERTEX
  5
5EC
  8
DRAFT
 10
-783.4891135374315
 20
-22.25441503548564
 30
0.0
 42
0.2214558604963553
  0
VERTEX
  5
5ED
  8
DRAFT
 10
-783.5387129763379
 20
-22.23638255334701
 30
0.0
  0
VERTEX
  5
5EE
  8
DRAFT
 10
-783.5835793480663
 20
-22.24030356093297
 30
0.0
 42
-0.1622776624805159
  0
VERTEX
  5
5EF
  8
DRAFT
 10
-783.6220252245699
 20
-22.23111581790942
 30
0.0
  0
VERTEX
  5
5F0
  8
DRAFT
 10
-783.6308710510613
 20
-22.22561505742884
 30
0.0
 42
1.989253265211946
  0
VERTEX
  5
5F1
  8
DRAFT
 10
-783.62259895818
 20
-22.32522553822248
 30
0.0
  0
VERTEX
  5
5F2
  8
DRAFT
 10
-783.6145736081336
 20
-22.31810711743319
 30
0.0
 42
-0.1609716664834545
  0
VERTEX
  5
5F3
  8
DRAFT
 10
-783.5785417628668
 20
-22.30260153028412
 30
0.0
  0
VERTEX
  5
5F4
  8
DRAFT
 10
-783.5597449541916
 20
-22.30095882046446
 30
0.0
 42
-0.2261705714084939
  0
VERTEX
  5
5F5
  8
DRAFT
 10
-783.5093583400272
 20
-22.31979143696563
 30
0.0
  0
VERTEX
  5
5F6
  8
DRAFT
 10
-783.4173246726751
 20
-22.415036045033
 30
0.0
 42
-0.6310947064837432
  0
VERTEX
  5
5F7
  8
DRAFT
 10
-783.4963327006814
 20
-22.62642156198913
 30
0.0
  0
VERTEX
  5
5F8
  8
DRAFT
 10
-784.080828892242
 20
-22.67750199652488
 30
0.0
 42
-0.2214556596439274
  0
VERTEX
  5
5F9
  8
DRAFT
 10
-784.1800276746873
 20
-22.64143702391284
 30
0.0
  0
VERTEX
  5
5FA
  8
DRAFT
 10
-784.4808572501152
 20
-22.34109775343791
 30
0.0
 42
0.2214558604942453
  0
VERTEX
  5
5FB
  8
DRAFT
 10
-784.5304566890212
 20
-22.32306527129939
 30
0.0
  0
VERTEX
  5
5FC
  8
DRAFT
 10
-784.5753230607498
 20
-22.32698627888528
 30
0.0
 42
-0.162277662468659
  0
VERTEX
  5
5FD
  8
DRAFT
 10
-784.6137689372537
 20
-22.31779853586171
 30
0.0
  0
VERTEX
  5
5FE
  8
DRAFT
 10
-784.622614763745
 20
-22.31229777538122
 30
0.0
 42
1.989253265125021
  0
VERTEX
  5
5FF
  8
DRAFT
 10
-784.6143426708635
 20
-22.41190825617464
 30
0.0
  0
VERTEX
  5
600
  8
DRAFT
 10
-784.6063173208169
 20
-22.40478983538549
 30
0.0
 42
-0.1609716664637092
  0
VERTEX
  5
601
  8
DRAFT
 10
-784.5702854755501
 20
-22.38928424823638
 30
0.0
  0
VERTEX
  5
602
  8
DRAFT
 10
-784.5514886668753
 20
-22.38764153841682
 30
0.0
 42
-0.2261705714096971
  0
VERTEX
  5
603
  8
DRAFT
 10
-784.5011020527107
 20
-22.40647415491789
 30
0.0
  0
VERTEX
  5
604
  8
DRAFT
 10
-784.4090790851413
 20
-22.50170768990025
 30
0.0
 42
-0.6310947064784754
  0
VERTEX
  5
605
  8
DRAFT
 10
-784.4880871131473
 20
-22.71309320685651
 30
0.0
  0
VERTEX
  5
606
  8
DRAFT
 10
-784.744772298463
 20
-22.73552550153041
 30
0.0
 42
-0.4141732650310128
  0
VERTEX
  5
607
  8
DRAFT
 10
-785.1509915979485
 20
-22.39464841994444
 30
0.0
  0
VERTEX
  5
608
  8
DRAFT
 10
-785.2164195143853
 20
-21.64716463054016
 30
0.0
 42
-0.4142489508366287
  0
VERTEX
  5
609
  8
DRAFT
 10
-784.8755017921764
 20
-21.24088998458615
 30
0.0
  0
SEQEND
  5
60A
  8
DRAFT
  0
POLYLINE
  5
60B
  8
DRAFT
 66
     1
 10
0.0
 20
0.0
 30
0.0
  0
VERTEX
  5
60C
  8
DRAFT
 10
-768.7860708720251
 20
-22.27087392146895
 30
0.0
  0
VERTEX
  5
60D
  8
DRAFT
 10
-768.7612835102146
 20
-22.27304016291211
 30
0.0
 42
0.1624911418150544
  0
VERTEX
  5
60E
  8
DRAFT
 10
-768.6855691767815
 20
-22.25538785714163
 30
0.0
 42
0.0901239739877382
  0
VERTEX
  5
60F
  8
DRAFT
 10
-768.5509371301515
 20
-22.1346652793163
 30
0.0
 42
0.2945408183589825
  0
VERTEX
  5
610
  8
DRAFT
 10
-768.5170139510777
 20
-21.74649708626259
 30
0.0
 42
0.0931204833706052
  0
VERTEX
  5
611
  8
DRAFT
 10
-768.6286643925414
 20
-21.60425114537988
 30
0.0
 42
0.1594425821309089
  0
VERTEX
  5
612
  8
DRAFT
 10
-768.7001689609305
 20
-21.57373293957167
 30
0.0
  0
VERTEX
  5
613
  8
DRAFT
 10
-768.7249563227023
 20
-21.57156669768542
 30
0.0
  0
SEQEND
  5
614
  8
DRAFT
  0
POLYLINE
  5
615
  8
DRAFT
 66
     1
 10
0.0
 20
0.0
 30
0.0
 70
     1
  0
VERTEX
  5
616
  8
DRAFT
 10
-771.2291558046364
 20
-21.24090370503121
 30
0.0
  0
VERTEX
  5
617
  8
DRAFT
 10
-771.2933431296717
 20
-21.97456818735253
 30
0.0
 42
0.4142135330815153
  0
VERTEX
  5
618
  8
DRAFT
 10
-771.2649356654299
 20
-22.00842288835608
 30
0.0
  0
VERTEX
  5
619
  8
DRAFT
 10
-770.738893882563
 20
-22.05444563390724
 30
0.0
 42
0.4142135777643379
  0
VERTEX
  5
61A
  8
DRAFT
 10
-770.705039178303
 20
-22.02603816830029
 30
0.0
  0
VERTEX
  5
61B
  8
DRAFT
 10
-770.6408518182203
 20
-21.29237368580207
 30
0.0
 42
1.000000000081884
  0
VERTEX
  5
61C
  8
DRAFT
 10
-770.6806996061442
 20
-21.2888874560922
 30
0.0
  0
VERTEX
  5
61D
  8
DRAFT
 10
-770.6934170363136
 20
-21.43424801322896
 30
0.0
 42
-0.4142135183884636
  0
VERTEX
  5
61E
  8
DRAFT
 10
-770.7272717385964
 20
-21.46265547422139
 30
0.0
  0
VERTEX
  5
61F
  8
DRAFT
 10
-771.1736179539645
 20
-21.42360521795479
 30
0.0
 42
-0.4142135477994612
  0
VERTEX
  5
620
  8
DRAFT
 10
-771.2020254197683
 20
-21.38975051681435
 30
0.0
  0
VERTEX
  5
621
  8
DRAFT
 10
-771.1893080167125
 20
-21.24438993474121
 30
0.0
 42
1.000000000023256
  0
SEQEND
  5
622
  8
DRAFT
  0
POLYLINE
  5
623
  8
DRAFT
 66
     1
 10
0.0
 20
0.0
 30
0.0
 70
     1
  0
VERTEX
  5
624
  8
DRAFT
 10
-770.1248759190395
 20
-22.08480817126595
 30
0.0
 42
0.4142135623654981
  0
VERTEX
  5
625
  8
DRAFT
 10
-770.0964698701897
 20
-22.11866406275862
 30
0.0
  0
VERTEX
  5
626
  8
DRAFT
 10
-769.6790212756622
 20
-22.15520370702442
 30
0.0
 42
0.4142135623654047
  0
VERTEX
  5
627
  8
DRAFT
 10
-769.6451653841696
 20
-22.12679765817435
 30
0.0
  0
VERTEX
  5
628
  8
DRAFT
 10
-769.5977139247967
 20
-21.58468660533497
 30
0.0
 42
0.4142135623754182
  0
VERTEX
  5
629
  8
DRAFT
 10
-769.6261199736465
 20
-21.55083071384241
 30
0.0
  0
VERTEX
  5
62A
  8
DRAFT
 10
-770.0435685681744
 20
-21.51429106957672
 30
0.0
 42
0.4142135623510477
  0
VERTEX
  5
62B
  8
DRAFT
 10
-770.0774244596657
 20
-21.54269711842687
 30
0.0
  0
SEQEND
  5
62C
  8
DRAFT
  0
POLYLINE
  5
62D
  8
DRAFT
 66
     1
 10
0.0
 20
0.0
 30
0.0
  0
VERTEX
  5
62E
  8
DRAFT
 10
-768.5857399290775
 20
-21.18285606103604
 30
0.0
 42
-0.2215234308529328
  0
VERTEX
  5
62F
  8
DRAFT
 10
-768.4942830579339
 20
-21.23560929170958
 30
0.0
  0
VERTEX
  5
630
  8
DRAFT
 10
-768.2501559272742
 20
-21.58371651007586
 30
0.0
 42
0.2214558604986976
  0
VERTEX
  5
631
  8
DRAFT
 10
-768.204443532988
 20
-21.61009172117528
 30
0.0
  0
VERTEX
  5
632
  8
DRAFT
 10
-768.1595782358828
 20
-21.61402500583394
 30
0.0
 42
-0.1622776624524772
  0
VERTEX
  5
633
  8
DRAFT
 10
-768.1233131912501
 20
-21.62975226178666
 30
0.0
  0
VERTEX
  5
634
  8
DRAFT
 10
-768.1155575324693
 20
-21.63670616493923
 30
0.0
 42
2.013858595980252
  0
VERTEX
  5
635
  8
DRAFT
 10
-768.1063984345128
 20
-21.5371733244838
 30
0.0
  0
VERTEX
  5
636
  8
DRAFT
 10
-768.1155384328925
 20
-21.54278924716061
 30
0.0
 42
-0.1609716664667051
  0
VERTEX
  5
637
  8
DRAFT
 10
-768.1537161455698
 20
-21.55179920614383
 30
0.0
  0
VERTEX
  5
638
  8
DRAFT
 10
-768.1725125040306
 20
-21.55015135283303
 30
0.0
 42
-0.2261705714034446
  0
VERTEX
  5
639
  8
DRAFT
 10
-768.2188610952524
 20
-21.52285141834546
 30
0.0
  0
VERTEX
  5
63A
  8
DRAFT
 10
-768.2930640900914
 20
-21.4128945383929
 30
0.0
 42
-0.6310043784660869
  0
VERTEX
  5
63B
  8
DRAFT
 10
-768.1785655451805
 20
-21.21844682244208
 30
0.0
  0
SEQEND
  5
63C
  8
DRAFT
  0
POLYLINE
  5
63D
  8
DRAFT
 66
     1
 10
0.0
 20
0.0
 30
0.0
  0
VERTEX
  5
63E
  8
DRAFT
 10
-769.5783599888597
 20
-21.06656858204246
 30
0.0
 42
-0.173823154930678
  0
VERTEX
  5
63F
  8
DRAFT
 10
-769.5094543953134
 20
-21.11524165684118
 30
0.0
  0
VERTEX
  5
640
  8
DRAFT
 10
-769.2418778392986
 20
-21.49678472964192
 30
0.0
 42
0.2214558605075321
  0
VERTEX
  5
641
  8
DRAFT
 10
-769.1961654450123
 20
-21.52315994074123
 30
0.0
  0
VERTEX
  5
642
  8
DRAFT
 10
-769.1513001479071
 20
-21.52709322540014
 30
0.0
 42
-0.162277662463806
  0
VERTEX
  5
643
  8
DRAFT
 10
-769.1150351032741
 20
-21.54282048135294
 30
0.0
  0
VERTEX
  5
644
  8
DRAFT
 10
-769.1072794444937
 20
-21.54977438450548
 30
0.0
 42
2.013858596105046
  0
VERTEX
  5
645
  8
DRAFT
 10
-769.0981203465363
 20
-21.45024154404993
 30
0.0
  0
VERTEX
  5
646
  8
DRAFT
 10
-769.1072603449167
 20
-21.45585746672683
 30
0.0
 42
-0.160971666464395
  0
VERTEX
  5
647
  8
DRAFT
 10
-769.1454380575941
 20
-21.46486742570992
 30
0.0
  0
VERTEX
  5
648
  8
DRAFT
 10
-769.1642344160549
 20
-21.46321957239941
 30
0.0
 42
-0.2261705714132232
  0
VERTEX
  5
649
  8
DRAFT
 10
-769.210583007277
 20
-21.43591963791189
 30
0.0
  0
VERTEX
  5
64A
  8
DRAFT
 10
-769.284609425126
 20
-21.32622441660147
 30
0.0
 42
-0.6310043784608526
  0
VERTEX
  5
64B
  8
DRAFT
 10
-769.1701108802147
 20
-21.13177670065081
 30
0.0
  0
SEQEND
  5
64C
  8
DRAFT
  0
LINE
  5
64D
  8
DRAFT
 10
-771.2445968245166
 20
-21.41739536986996
 30
0.0
 11
-771.2291558046364
 21
-21.24090370503121
 31
0.0
  0
POLYLINE
  5
64E
  8
DRAFT
 66
     1
 10
0.0
 20
0.0
 30
0.0
  0
VERTEX
  5
64F
  8
DRAFT
 10
-784.0112365546898
 20
-22.27087392146957
 30
0.0
  0
VERTEX
  5
650
  8
DRAFT
 10
-784.0360239165003
 20
-22.27304016291273
 30
0.0
 42
-0.1624911418136272
  0
VERTEX
  5
651
  8
DRAFT
 10
-784.1117382499334
 20
-22.25538785714227
 30
0.0
 42
-0.0901239739884665
  0
VERTEX
  5
652
  8
DRAFT
 10
-784.2463702965632
 20
-22.13466527931691
 30
0.0
 42
-0.2945408183605205
  0
VERTEX
  5
653
  8
DRAFT
 10
-784.2802934756372
 20
-21.74649708626326
 30
0.0
 42
-0.093120483372192
  0
VERTEX
  5
654
  8
DRAFT
 10
-784.1686430341734
 20
-21.60425114538056
 30
0.0
 42
-0.1594425821320557
  0
VERTEX
  5
655
  8
DRAFT
 10
-784.0971384657845
 20
-21.57373293957247
 30
0.0
  0
VERTEX
  5
656
  8
DRAFT
 10
-784.0723511040127
 20
-21.57156669768604
 30
0.0
  0
SEQEND
  5
657
  8
DRAFT
  0
POLYLINE
  5
658
  8
DRAFT
 66
     1
 10
0.0
 20
0.0
 30
0.0
 70
     1
  0
VERTEX
  5
659
  8
DRAFT
 10
-781.5681516220785
 20
-21.24090370503162
 30
0.0
  0
VERTEX
  5
65A
  8
DRAFT
 10
-781.5039642970435
 20
-21.97456818735296
 30
0.0
 42
-0.4142135330677079
  0
VERTEX
  5
65B
  8
DRAFT
 10
-781.5323717612849
 20
-22.00842288835673
 30
0.0
  0
VERTEX
  5
65C
  8
DRAFT
 10
-782.0584135441519
 20
-22.05444563390768
 30
0.0
 42
-0.4142135777531086
  0
VERTEX
  5
65D
  8
DRAFT
 10
-782.0922682484121
 20
-22.02603816830075
 30
0.0
  0
VERTEX
  5
65E
  8
DRAFT
 10
-782.1564556084946
 20
-21.29237368580254
 30
0.0
 42
-1.000000000076433
  0
VERTEX
  5
65F
  8
DRAFT
 10
-782.1166078205712
 20
-21.28888745609271
 30
0.0
  0
VERTEX
  5
660
  8
DRAFT
 10
-782.1038903904014
 20
-21.43424801322941
 30
0.0
 42
0.4142135183891149
  0
VERTEX
  5
661
  8
DRAFT
 10
-782.0700356881185
 20
-21.4626554742218
 30
0.0
  0
VERTEX
  5
662
  8
DRAFT
 10
-781.6236894727505
 20
-21.42360521795522
 30
0.0
 42
0.4142135478000167
  0
VERTEX
  5
663
  8
DRAFT
 10
-781.5952820069467
 20
-21.38975051681478
 30
0.0
  0
VERTEX
  5
664
  8
DRAFT
 10
-781.6079994100024
 20
-21.24438993474164
 30
0.0
 42
-1.000000000038598
  0
SEQEND
  5
665
  8
DRAFT
  0
POLYLINE
  5
666
  8
DRAFT
 66
     1
 10
0.0
 20
0.0
 30
0.0
 70
     1
  0
VERTEX
  5
667
  8
DRAFT
 10
-782.6724315076755
 20
-22.08480817126647
 30
0.0
 42
-0.4142135623727786
  0
VERTEX
  5
668
  8
DRAFT
 10
-782.7008375565252
 20
-22.11866406275919
 30
0.0
  0
VERTEX
  5
669
  8
DRAFT
 10
-783.1182861510529
 20
-22.15520370702487
 30
0.0
 42
-0.4142135623671751
  0
VERTEX
  5
66A
  8
DRAFT
 10
-783.1521420425452
 20
-22.12679765817487
 30
0.0
  0
VERTEX
  5
66B
  8
DRAFT
 10
-783.1995935019182
 20
-21.58468660533553
 30
0.0
 42
-0.4142135623742094
  0
VERTEX
  5
66C
  8
DRAFT
 10
-783.1711874530685
 20
-21.55083071384287
 30
0.0
  0
VERTEX
  5
66D
  8
DRAFT
 10
-782.7537388585407
 20
-21.51429106957728
 30
0.0
 42
-0.4142135623545062
  0
VERTEX
  5
66E
  8
DRAFT
 10
-782.7198829670492
 20
-21.54269711842737
 30
0.0
  0
SEQEND
  5
66F
  8
DRAFT
  0
POLYLINE
  5
670
  8
DRAFT
 66
     1
 10
0.0
 20
0.0
 30
0.0
  0
VERTEX
  5
671
  8
DRAFT
 10
-784.2115674976375
 20
-21.18285606103667
 30
0.0
 42
0.2215234308524568
  0
VERTEX
  5
672
  8
DRAFT
 10
-784.3030243687812
 20
-21.23560929171022
 30
0.0
  0
VERTEX
  5
673
  8
DRAFT
 10
-784.5471514994406
 20
-21.58371651007657
 30
0.0
 42
-0.2214558604986903
  0
VERTEX
  5
674
  8
DRAFT
 10
-784.592863893727
 20
-21.61009172117591
 30
0.0
  0
VERTEX
  5
675
  8
DRAFT
 10
-784.6377291908321
 20
-21.61402500583468
 30
0.0
 42
0.1622776624505074
  0
VERTEX
  5
676
  8
DRAFT
 10
-784.6739942354649
 20
-21.62975226178733
 30
0.0
  0
VERTEX
  5
677
  8
DRAFT
 10
-784.6817498942456
 20
-21.63670616493993
 30
0.0
 42
-2.013858595996586
  0
VERTEX
  5
678
  8
DRAFT
 10
-784.690908992202
 20
-21.53717332448448
 30
0.0
  0
VERTEX
  5
679
  8
DRAFT
 10
-784.6817689938224
 20
-21.5427892471613
 30
0.0
 42
0.1609716664686945
  0
VERTEX
  5
67A
  8
DRAFT
 10
-784.6435912811452
 20
-21.55179920614442
 30
0.0
  0
VERTEX
  5
67B
  8
DRAFT
 10
-784.6247949226844
 20
-21.5501513528337
 30
0.0
 42
0.2261705714012395
  0
VERTEX
  5
67C
  8
DRAFT
 10
-784.5784463314627
 20
-21.52285141834617
 30
0.0
  0
VERTEX
  5
67D
  8
DRAFT
 10
-784.5042433366235
 20
-21.41289453839355
 30
0.0
 42
0.6310043784684423
  0
VERTEX
  5
67E
  8
DRAFT
 10
-784.6187418815344
 20
-21.21844682244263
 30
0.0
  0
SEQEND
  5
67F
  8
DRAFT
  0
POLYLINE
  5
680
  8
DRAFT
 66
     1
 10
0.0
 20
0.0
 30
0.0
  0
VERTEX
  5
681
  8
DRAFT
 10
-783.2189474378553
 20
-21.06656858204301
 30
0.0
 42
0.1738231549325804
  0
VERTEX
  5
682
  8
DRAFT
 10
-783.2878530314018
 20
-21.1152416568417
 30
0.0
  0
VERTEX
  5
683
  8
DRAFT
 10
-783.5554295874164
 20
-21.4967847296425
 30
0.0
 42
-0.2214558605019402
  0
VERTEX
  5
684
  8
DRAFT
 10
-783.6011419817027
 20
-21.52315994074169
 30
0.0
  0
VERTEX
  5
685
  8
DRAFT
 10
-783.6460072788078
 20
-21.52709322540082
 30
0.0
 42
0.1622776624681978
  0
VERTEX
  5
686
  8
DRAFT
 10
-783.682272323441
 20
-21.54282048135354
 30
0.0
  0
VERTEX
  5
687
  8
DRAFT
 10
-783.6900279822213
 20
-21.54977438450607
 30
0.0
 42
-2.013858596073133
  0
VERTEX
  5
688
  8
DRAFT
 10
-783.6991870801786
 20
-21.45024154405045
 30
0.0
  0
VERTEX
  5
689
  8
DRAFT
 10
-783.6900470817983
 20
-21.45585746672742
 30
0.0
 42
0.1609716664671881
  0
VERTEX
  5
68A
  8
DRAFT
 10
-783.6518693691208
 20
-21.46486742571044
 30
0.0
  0
VERTEX
  5
68B
  8
DRAFT
 10
-783.63307301066
 20
-21.46321957239991
 30
0.0
 42
0.2261705714139591
  0
VERTEX
  5
68C
  8
DRAFT
 10
-783.5867244194378
 20
-21.43591963791249
 30
0.0
  0
VERTEX
  5
68D
  8
DRAFT
 10
-783.5126980015889
 20
-21.32622441660203
 30
0.0
 42
0.6310043784596429
  0
VERTEX
  5
68E
  8
DRAFT
 10
-783.6271965465002
 20
-21.13177670065155
 30
0.0
  0
SEQEND
  5
68F
  8
DRAFT
  0
LINE
  5
690
  8
DRAFT
 10
-781.5527106021983
 20
-21.41739536987037
 30
0.0
 11
-781.5681516220785
 21
-21.24090370503162
 31
0.0
  0
POLYLINE
  5
691
  8
DRAFT
 66
     1
 10
0.0
 20
0.0
 30
0.0
  0
VERTEX
  5
692
  8
DRAFT
 10
-773.667982352062
 20
-11.58869546679174
 30
0.0
 42
0.4141732650314169
  0
VERTEX
  5
693
  8
DRAFT
 10
-774.0742016515477
 20
-11.92957254837733
 30
0.0
  0
VERTEX
  5
694
  8
DRAFT
 10
-774.1396295679845
 20
-12.67705633778167
 30
0.0
 42
0.4142489508372322
  0
VERTEX
  5
695
  8
DRAFT
 10
-773.7987118457759
 20
-13.08333098373534
 30
0.0
  0
SEQEND
  5
696
  8
DRAFT
  0
POLYLINE
  5
697
  8
DRAFT
 66
     1
 10
0.0
 20
0.0
 30
0.0
  0
VERTEX
  5
698
  8
DRAFT
 10
-772.0122832958581
 20
-11.73339072481387
 30
0.0
 42
0.2214552436093697
  0
VERTEX
  5
699
  8
DRAFT
 10
-772.1114819379766
 20
-11.76945555732778
 30
0.0
  0
VERTEX
  5
69A
  8
DRAFT
 10
-772.4123235910306
 20
-12.06980593283636
 30
0.0
 42
-0.2214558604971173
  0
VERTEX
  5
69B
  8
DRAFT
 10
-772.4619230299372
 20
-12.0878384149746
 30
0.0
  0
VERTEX
  5
69C
  8
DRAFT
 10
-772.5067894016656
 20
-12.08391740738862
 30
0.0
 42
0.1622776624634898
  0
VERTEX
  5
69D
  8
DRAFT
 10
-772.5452352781695
 20
-12.09310515041224
 30
0.0
  0
VERTEX
  5
69E
  8
DRAFT
 10
-772.5540811046612
 20
-12.09860591089249
 30
0.0
 42
-1.989253265112224
  0
VERTEX
  5
69F
  8
DRAFT
 10
-772.545809011779
 20
-11.99899543009921
 30
0.0
  0
VERTEX
  5
6A0
  8
DRAFT
 10
-772.5377836617328
 20
-12.00611385088846
 30
0.0
 42
0.1609716664594328
  0
VERTEX
  5
6A1
  8
DRAFT
 10
-772.5017518164663
 20
-12.02161943803781
 30
0.0
  0
VERTEX
  5
6A2
  8
DRAFT
 10
-772.4829550077909
 20
-12.02326214785719
 30
0.0
 42
0.2261705713988869
  0
VERTEX
  5
6A3
  8
DRAFT
 10
-772.4325683936273
 20
-12.00442953135577
 30
0.0
  0
VERTEX
  5
6A4
  8
DRAFT
 10
-772.3405347262741
 20
-11.90918492328881
 30
0.0
 42
0.6310947064881272
  0
VERTEX
  5
6A5
  8
DRAFT
 10
-772.4195427542808
 20
-11.69779940633263
 30
0.0
  0
SEQEND
  5
6A6
  8
DRAFT
  0
POLYLINE
  5
6A7
  8
DRAFT
 66
     1
 10
0.0
 20
0.0
 30
0.0
  0
VERTEX
  5
6A8
  8
DRAFT
 10
-773.0040389458414
 20
-11.64671897179726
 30
0.0
 42
0.2214556596406878
  0
VERTEX
  5
6A9
  8
DRAFT
 10
-773.1032377282869
 20
-11.68278394440875
 30
0.0
  0
VERTEX
  5
6AA
  8
DRAFT
 10
-773.4040673037147
 20
-11.98312321488377
 30
0.0
 42
-0.2214558605028387
  0
VERTEX
  5
6AB
  8
DRAFT
 10
-773.4536667426206
 20
-12.00115569702233
 30
0.0
  0
VERTEX
  5
6AC
  8
DRAFT
 10
-773.498533114349
 20
-11.99723468943652
 30
0.0
 42
0.1622776624684104
  0
VERTEX
  5
6AD
  8
DRAFT
 10
-773.5369789908533
 20
-12.00642243246016
 30
0.0
  0
VERTEX
  5
6AE
  8
DRAFT
 10
-773.5458248173442
 20
-12.01192319294081
 30
0.0
 42
-1.989253265099774
  0
VERTEX
  5
6AF
  8
DRAFT
 10
-773.5375527244626
 20
-11.91231271214693
 30
0.0
  0
VERTEX
  5
6B0
  8
DRAFT
 10
-773.5295273744163
 20
-11.91943113293624
 30
0.0
 42
0.1609716664647247
  0
VERTEX
  5
6B1
  8
DRAFT
 10
-773.4934955291498
 20
-11.93493672008528
 30
0.0
  0
VERTEX
  5
6B2
  8
DRAFT
 10
-773.4746987204745
 20
-11.9365794299051
 30
0.0
 42
0.2261705714151599
  0
VERTEX
  5
6B3
  8
DRAFT
 10
-773.4243121063101
 20
-11.91774681340376
 30
0.0
  0
VERTEX
  5
6B4
  8
DRAFT
 10
-773.3322891387407
 20
-11.82251327842143
 30
0.0
 42
0.631094706477338
  0
VERTEX
  5
6B5
  8
DRAFT
 10
-773.4112971667465
 20
-11.61112776146482
 30
0.0
  0
SEQEND
  5
6B6
  8
DRAFT
  0
POLYLINE
  5
6B7
  8
DRAFT
 66
     1
 10
0.0
 20
0.0
 30
0.0
  0
VERTEX
  5
6B8
  8
DRAFT
 10
-773.1347775512363
 20
-13.14136490728506
 30
0.0
 42
-0.2215234308500739
  0
VERTEX
  5
6B9
  8
DRAFT
 10
-773.2262344223807
 20
-13.088611676612
 30
0.0
  0
VERTEX
  5
6BA
  8
DRAFT
 10
-773.4703615530398
 20
-12.74050445824525
 30
0.0
 42
0.2214558605011012
  0
VERTEX
  5
6BB
  8
DRAFT
 10
-773.516073947326
 20
-12.71412924714559
 30
0.0
  0
VERTEX
  5
6BC
  8
DRAFT
 10
-773.5609392444312
 20
-12.71019596248713
 30
0.0
 42
-0.1622776624679697
  0
VERTEX
  5
6BD
  8
DRAFT
 10
-773.597204289064
 20
-12.6944687065345
 30
0.0
  0
VERTEX
  5
6BE
  8
DRAFT
 10
-773.6049599478447
 20
-12.68751480338186
 30
0.0
 42
2.013858596110833
  0
VERTEX
  5
6BF
  8
DRAFT
 10
-773.6141190458013
 20
-12.78704764383724
 30
0.0
  0
VERTEX
  5
6C0
  8
DRAFT
 10
-773.6049790474212
 20
-12.78143172116046
 30
0.0
 42
-0.160971666466201
  0
VERTEX
  5
6C1
  8
DRAFT
 10
-773.566801334744
 20
-12.77242176217705
 30
0.0
  0
VERTEX
  5
6C2
  8
DRAFT
 10
-773.5480049762834
 20
-12.77406961548805
 30
0.0
 42
-0.2261705714084455
  0
VERTEX
  5
6C3
  8
DRAFT
 10
-773.5016563850618
 20
-12.80136954997541
 30
0.0
  0
VERTEX
  5
6C4
  8
DRAFT
 10
-773.4274533902228
 20
-12.91132642992822
 30
0.0
 42
-0.6310043784619673
  0
VERTEX
  5
6C5
  8
DRAFT
 10
-773.5419519351342
 20
-13.10577414587894
 30
0.0
  0
SEQEND
  5
6C6
  8
DRAFT
  0
POLYLINE
  5
6C7
  8
DRAFT
 66
     1
 10
0.0
 20
0.0
 30
0.0
  0
VERTEX
  5
6C8
  8
DRAFT
 10
-772.1421574914539
 20
-13.25765238627864
 30
0.0
 42
-0.1738231549400837
  0
VERTEX
  5
6C9
  8
DRAFT
 10
-772.2110630850005
 20
-13.2089793114802
 30
0.0
  0
VERTEX
  5
6CA
  8
DRAFT
 10
-772.478639641015
 20
-12.82743623867918
 30
0.0
 42
0.2214558604963255
  0
VERTEX
  5
6CB
  8
DRAFT
 10
-772.5243520353015
 20
-12.80106102757963
 30
0.0
  0
VERTEX
  5
6CC
  8
DRAFT
 10
-772.5692173324067
 20
-12.79712774292093
 30
0.0
 42
-0.1622776624554003
  0
VERTEX
  5
6CD
  8
DRAFT
 10
-772.6054823770395
 20
-12.78140048696812
 30
0.0
  0
VERTEX
  5
6CE
  8
DRAFT
 10
-772.6132380358201
 20
-12.77444658381565
 30
0.0
 42
2.013858596111683
  0
VERTEX
  5
6CF
  8
DRAFT
 10
-772.6223971337769
 20
-12.87397942427159
 30
0.0
  0
VERTEX
  5
6D0
  8
DRAFT
 10
-772.6132571353969
 20
-12.86836350159424
 30
0.0
 42
-0.1609716664699577
  0
VERTEX
  5
6D1
  8
DRAFT
 10
-772.575079422719
 20
-12.8593535426107
 30
0.0
  0
VERTEX
  5
6D2
  8
DRAFT
 10
-772.5562830642589
 20
-12.86100139592182
 30
0.0
 42
-0.2261705714130869
  0
VERTEX
  5
6D3
  8
DRAFT
 10
-772.5099344730374
 20
-12.88830133040933
 30
0.0
  0
VERTEX
  5
6D4
  8
DRAFT
 10
-772.4359080551881
 20
-12.99799655171967
 30
0.0
 42
-0.6310043784605315
  0
VERTEX
  5
6D5
  8
DRAFT
 10
-772.550406600099
 20
-13.19244426767041
 30
0.0
  0
SEQEND
  5
6D6
  8
DRAFT
  0
POLYLINE
  5
6D7
  8
DRAFT
 66
     1
 10
0.0
 20
0.0
 30
0.0
 70
     1
  0
VERTEX
  5
6D8
  8
DRAFT
 10
-771.5956415612745
 20
-12.23941279705516
 30
0.0
 42
0.4142135623783108
  0
VERTEX
  5
6D9
  8
DRAFT
 10
-771.6240476101245
 20
-12.20555690556339
 30
0.0
  0
VERTEX
  5
6DA
  8
DRAFT
 10
-772.0414962046516
 20
-12.16901726129678
 30
0.0
 42
0.4142135623730341
  0
VERTEX
  5
6DB
  8
DRAFT
 10
-772.075352096145
 20
-12.19742331014677
 30
0.0
  0
VERTEX
  5
6DC
  8
DRAFT
 10
-772.1228035555171
 20
-12.73953436298613
 30
0.0
 42
0.4142135623798342
  0
VERTEX
  5
6DD
  8
DRAFT
 10
-772.0943975066671
 20
-12.7733902544781
 30
0.0
  0
VERTEX
  5
6DE
  8
DRAFT
 10
-771.6769489121396
 20
-12.80992989874446
 30
0.0
 42
0.4142135623586031
  0
VERTEX
  5
6DF
  8
DRAFT
 10
-771.6430930206477
 20
-12.78152384989427
 30
0.0
  0
SEQEND
  5
6E0
  8
DRAFT
  0
POLYLINE
  5
6E1
  8
DRAFT
 66
     1
 10
0.0
 20
0.0
 30
0.0
 70
     1
  0
VERTEX
  5
6E2
  8
DRAFT
 10
-770.4913616756774
 20
-13.08331726328992
 30
0.0
  0
VERTEX
  5
6E3
  8
DRAFT
 10
-770.4271743506424
 20
-12.34965278096856
 30
0.0
 42
0.4142135330959147
  0
VERTEX
  5
6E4
  8
DRAFT
 10
-770.455581814884
 20
-12.31579807996445
 30
0.0
  0
VERTEX
  5
6E5
  8
DRAFT
 10
-770.981623597751
 20
-12.26977533441402
 30
0.0
 42
0.4142135777816889
  0
VERTEX
  5
6E6
  8
DRAFT
 10
-771.0154783020108
 20
-12.29818280002086
 30
0.0
  0
VERTEX
  5
6E7
  8
DRAFT
 10
-771.0796656620937
 20
-13.03184728251905
 30
0.0
 42
1.000000000014143
  0
VERTEX
  5
6E8
  8
DRAFT
 10
-771.0398178741705
 20
-13.03533351222876
 30
0.0
  0
VERTEX
  5
6E9
  8
DRAFT
 10
-771.0271004440003
 20
-12.88997295509217
 30
0.0
 42
-0.4142135183746994
  0
VERTEX
  5
6EA
  8
DRAFT
 10
-770.9932457417178
 20
-12.86156549410013
 30
0.0
  0
VERTEX
  5
6EB
  8
DRAFT
 10
-770.5468995263493
 20
-12.90061575036633
 30
0.0
 42
-0.4142135477756356
  0
VERTEX
  5
6EC
  8
DRAFT
 10
-770.5184920605457
 20
-12.93447045150677
 30
0.0
  0
VERTEX
  5
6ED
  8
DRAFT
 10
-770.5312094636013
 20
-13.07983103357991
 30
0.0
 42
0.9999999999824859
  0
SEQEND
  5
6EE
  8
DRAFT
  0
POLYLINE
  5
6EF
  8
DRAFT
 66
     1
 10
0.0
 20
0.0
 30
0.0
  0
VERTEX
  5
6F0
  8
DRAFT
 10
-772.9344466082887
 20
-12.05334704685216
 30
0.0
  0
VERTEX
  5
6F1
  8
DRAFT
 10
-772.9592339700994
 20
-12.05118080540912
 30
0.0
 42
0.1624911418078208
  0
VERTEX
  5
6F2
  8
DRAFT
 10
-773.0349483035327
 20
-12.06883311117938
 30
0.0
 42
0.0901239739957814
  0
VERTEX
  5
6F3
  8
DRAFT
 10
-773.1695803501625
 20
-12.18955568900471
 30
0.0
 42
0.2945408183497235
  0
VERTEX
  5
6F4
  8
DRAFT
 10
-773.2035035292365
 20
-12.57772388205849
 30
0.0
 42
0.0931204833716331
  0
VERTEX
  5
6F5
  8
DRAFT
 10
-773.0918530877724
 20
-12.71996982294115
 30
0.0
 42
0.1594425821249154
  0
VERTEX
  5
6F6
  8
DRAFT
 10
-773.0203485193836
 20
-12.7504880287492
 30
0.0
  0
VERTEX
  5
6F7
  8
DRAFT
 10
-772.9955611576115
 20
-12.75265427063569
 30
0.0
  0
SEQEND
  5
6F8
  8
DRAFT
  0
LINE
  5
6F9
  8
DRAFT
 10
-770.4759206557972
 20
-12.90682559845117
 30
0.0
 11
-770.4913616756774
 21
-13.08331726328992
 31
0.0
  0
POLYLINE
  5
6FA
  8
DRAFT
 66
     1
 10
0.0
 20
0.0
 30
0.0
 70
     1
  0
VERTEX
  5
6FB
  8
DRAFT
 10
-778.5813189409057
 20
-11.54080184222627
 30
0.0
 42
-0.04362140614283
  0
VERTEX
  5
6FC
  8
DRAFT
 10
-774.2159884858598
 20
-11.54080184222604
 30
0.0
  0
VERTEX
  5
6FD
  8
DRAFT
 10
-767.5045289944792
 20
-12.12735813972371
 30
0.0
 42
0.043621406142658
  0
VERTEX
  5
6FE
  8
DRAFT
 10
-763.1391985394339
 20
-12.12735813972347
 30
0.0
  0
VERTEX
  5
6FF
  8
DRAFT
 10
-758.6314442380551
 20
-11.73339738104597
 30
0.0
 42
-0.2214552436107336
  0
VERTEX
  5
700
  8
DRAFT
 10
-758.5322455959368
 20
-11.76946221355988
 30
0.0
  0
VERTEX
  5
701
  8
DRAFT
 10
-758.2314039428823
 20
-12.06981258906829
 30
0.0
 42
0.2214558604919654
  0
VERTEX
  5
702
  8
DRAFT
 10
-758.1818045039761
 20
-12.08784507120708
 30
0.0
  0
VERTEX
  5
703
  8
DRAFT
 10
-758.1369381322477
 20
-12.08392406362092
 30
0.0
 42
-0.1622776624698254
  0
VERTEX
  5
704
  8
DRAFT
 10
-758.0984922557438
 20
-12.09311180664457
 30
0.0
  0
VERTEX
  5
705
  8
DRAFT
 10
-758.0896464292524
 20
-12.09861256712491
 30
0.0
 42
1.989253265083569
  0
VERTEX
  5
706
  8
DRAFT
 10
-758.0979185221335
 20
-11.99900208633182
 30
0.0
  0
VERTEX
  5
707
  8
DRAFT
 10
-758.1059438721805
 20
-12.00612050712073
 30
0.0
 42
-0.1609716664745067
  0
VERTEX
  5
708
  8
DRAFT
 10
-758.1419757174473
 20
-12.02162609427011
 30
0.0
  0
VERTEX
  5
709
  8
DRAFT
 10
-758.1607725261222
 20
-12.02326880408944
 30
0.0
 42
-0.2261705714074126
  0
VERTEX
  5
70A
  8
DRAFT
 10
-758.2111591402863
 20
-12.00443618758826
 30
0.0
  0
VERTEX
  5
70B
  8
DRAFT
 10
-758.3031928076388
 20
-11.90919157952086
 30
0.0
 42
-0.631094706481673
  0
VERTEX
  5
70C
  8
DRAFT
 10
-758.224184779633
 20
-11.69780606256509
 30
0.0
  0
VERTEX
  5
70D
  8
DRAFT
 10
-757.6396885880719
 20
-11.64672562802924
 30
0.0
 42
-0.2214556596458639
  0
VERTEX
  5
70E
  8
DRAFT
 10
-757.5404898056265
 20
-11.68279060064124
 30
0.0
  0
VERTEX
  5
70F
  8
DRAFT
 10
-757.2396602301988
 20
-11.98312987111595
 30
0.0
 42
0.221455860504916
  0
VERTEX
  5
710
  8
DRAFT
 10
-757.1900607912927
 20
-12.00116235325463
 30
0.0
  0
VERTEX
  5
711
  8
DRAFT
 10
-757.1451944195643
 20
-11.99724134566873
 30
0.0
 42
-0.1622776624745833
  0
VERTEX
  5
712
  8
DRAFT
 10
-757.1067485430599
 20
-12.00642908869214
 30
0.0
  0
VERTEX
  5
713
  8
DRAFT
 10
-757.097902716569
 20
-12.01192984917296
 30
0.0
 42
1.989253265155194
  0
VERTEX
  5
714
  8
DRAFT
 10
-757.1061748094504
 20
-11.91231936837945
 30
0.0
  0
VERTEX
  5
715
  8
DRAFT
 10
-757.1142001594968
 20
-11.91943778916845
 30
0.0
 42
-0.1609716664699735
  0
VERTEX
  5
716
  8
DRAFT
 10
-757.1502320047638
 20
-11.93494337631779
 30
0.0
  0
VERTEX
  5
717
  8
DRAFT
 10
-757.1690288134388
 20
-11.93658608613754
 30
0.0
 42
-0.2261705714016118
  0
VERTEX
  5
718
  8
DRAFT
 10
-757.2194154276034
 20
-11.91775346963617
 30
0.0
  0
VERTEX
  5
719
  8
DRAFT
 10
-757.3114383951726
 20
-11.8225199346536
 30
0.0
 42
-0.6310947064818868
  0
VERTEX
  5
71A
  8
DRAFT
 10
-757.2324303671668
 20
-11.6111344176978
 30
0.0
  0
VERTEX
  5
71B
  8
DRAFT
 10
-756.9757451818513
 20
-11.58870212302409
 30
0.0
 42
-0.4141732650306558
  0
VERTEX
  5
71C
  8
DRAFT
 10
-756.5695258823661
 20
-11.92957920460958
 30
0.0
  0
VERTEX
  5
71D
  8
DRAFT
 10
-756.5040979659285
 20
-12.67706299401388
 30
0.0
 42
-0.4142489508376642
  0
VERTEX
  5
71E
  8
DRAFT
 10
-756.8450156881374
 20
-13.08333763996829
 30
0.0
  0
VERTEX
  5
71F
  8
DRAFT
 10
-757.1017755987791
 20
-13.10578080211124
 30
0.0
 42
-0.6310043784688928
  0
VERTEX
  5
720
  8
DRAFT
 10
-757.2162741436899
 20
-12.9113330861605
 30
0.0
  0
VERTEX
  5
721
  8
DRAFT
 10
-757.1420711488512
 20
-12.80137620620779
 30
0.0
 42
-0.2261705714073074
  0
VERTEX
  5
722
  8
DRAFT
 10
-757.0957225576294
 20
-12.77407627172022
 30
0.0
  0
VERTEX
  5
723
  8
DRAFT
 10
-757.0769261991687
 20
-12.7724284184098
 30
0.0
 42
-0.1609716664785734
  0
VERTEX
  5
724
  8
DRAFT
 10
-757.0387484864918
 20
-12.78143837739272
 30
0.0
  0
VERTEX
  5
725
  8
DRAFT
 10
-757.0296084881118
 20
-12.78705430006987
 30
0.0
 42
1.998067170471043
  0
VERTEX
  5
726
  8
DRAFT
 10
-757.0387675860687
 20
-12.68752145961406
 30
0.0
  0
VERTEX
  5
727
  8
DRAFT
 10
-757.0465232448491
 20
-12.69447536276641
 30
0.0
 42
-0.1622776624614916
  0
VERTEX
  5
728
  8
DRAFT
 10
-757.0827882894819
 20
-12.71020261871942
 30
0.0
  0
VERTEX
  5
729
  8
DRAFT
 10
-757.1276535865868
 20
-12.71413590337789
 30
0.0
 42
0.2214558605024357
  0
VERTEX
  5
72A
  8
DRAFT
 10
-757.1733659808735
 20
-12.74051111447744
 30
0.0
  0
VERTEX
  5
72B
  8
DRAFT
 10
-757.4174931115326
 20
-13.08861833284382
 30
0.0
 42
-0.2215234308521576
  0
VERTEX
  5
72C
  8
DRAFT
 10
-757.5089499826768
 20
-13.14137156351741
 30
0.0
  0
VERTEX
  5
72D
  8
DRAFT
 10
-758.0933209338139
 20
-13.19245092390292
 30
0.0
 42
-0.6310043784595584
  0
VERTEX
  5
72E
  8
DRAFT
 10
-758.2078194787247
 20
-12.99800320795216
 30
0.0
  0
VERTEX
  5
72F
  8
DRAFT
 10
-758.1337930608753
 20
-12.88830798664172
 30
0.0
 42
-0.2261705714093177
  0
VERTEX
  5
730
  8
DRAFT
 10
-758.087444469654
 20
-12.8610080521543
 30
0.0
  0
VERTEX
  5
731
  8
DRAFT
 10
-758.0686481111934
 20
-12.85936019884333
 30
0.0
 42
-0.1609716664793801
  0
VERTEX
  5
732
  8
DRAFT
 10
-758.0304703985157
 20
-12.8683701578267
 30
0.0
  0
VERTEX
  5
733
  8
DRAFT
 10
-758.021330400136
 20
-12.8739860805039
 30
0.0
 42
1.998067170515796
  0
VERTEX
  5
734
  8
DRAFT
 10
-758.030489498093
 20
-12.77445324004796
 30
0.0
  0
VERTEX
  5
735
  8
DRAFT
 10
-758.0382451568736
 20
-12.78140714320074
 30
0.0
 42
-0.1622776624649244
  0
VERTEX
  5
736
  8
DRAFT
 10
-758.0745102015062
 20
-12.79713439915314
 30
0.0
  0
VERTEX
  5
737
  8
DRAFT
 10
-758.1193754986112
 20
-12.80106768381208
 30
0.0
 42
0.2214558604797276
  0
VERTEX
  5
738
  8
DRAFT
 10
-758.1650878928979
 20
-12.82744289491154
 30
0.0
  0
VERTEX
  5
739
  8
DRAFT
 10
-758.4326644489122
 20
-13.20898596771244
 30
0.0
 42
-0.1738231549345106
  0
VERTEX
  5
73A
  8
DRAFT
 10
-758.5015700424586
 20
-13.25765904251081
 30
0.0
 42
0.3369513388473326
  0
VERTEX
  5
73B
  8
DRAFT
 10
-759.7834687937559
 20
-14.94389189155384
 30
0.0
  0
VERTEX
  5
73C
  8
DRAFT
 10
-759.7834687937556
 20
-19.38033573299931
 30
0.0
 42
-0.3889014466556079
  0
VERTEX
  5
73D
  8
DRAFT
 10
-761.3810838344815
 20
-21.12368848680102
 30
0.0
  0
VERTEX
  5
73E
  8
DRAFT
 10
-763.1391340638153
 20
-21.27735813972384
 30
0.0
 42
-0.0436214070618102
  0
VERTEX
  5
73F
  8
DRAFT
 10
-767.5045934700969
 20
-21.27735813972408
 30
0.0
  0
VERTEX
  5
740
  8
DRAFT
 10
-769.2626436994309
 20
-21.12368848680165
 30
0.0
 42
-0.3889014466556289
  0
VERTEX
  5
741
  8
DRAFT
 10
-770.860258740157
 20
-19.38033573299975
 30
0.0
  0
VERTEX
  5
742
  8
DRAFT
 10
-770.8602587401572
 20
-14.94389189155429
 30
0.0
 42
0.3889014466557821
  0
VERTEX
  5
743
  8
DRAFT
 10
-772.4578737808831
 20
-13.20053913775226
 30
0.0
  0
VERTEX
  5
744
  8
DRAFT
 10
-774.2159240102169
 20
-13.04686948482999
 30
0.0
 42
0.0436214070618928
  0
VERTEX
  5
745
  8
DRAFT
 10
-778.5813834164987
 20
-13.04686948483017
 30
0.0
  0
VERTEX
  5
746
  8
DRAFT
 10
-780.3394336458327
 20
-13.20053913775279
 30
0.0
 42
0.3889014466555619
  0
VERTEX
  5
747
  8
DRAFT
 10
-781.9370486865582
 20
-14.94389189155473
 30
0.0
  0
VERTEX
  5
748
  8
DRAFT
 10
-781.9370486865585
 20
-19.38033573300019
 30
0.0
 42
-0.3889014466557859
  0
VERTEX
  5
749
  8
DRAFT
 10
-783.5346637272843
 20
-21.12368848680192
 30
0.0
  0
VERTEX
  5
74A
  8
DRAFT
 10
-785.2927139566181
 20
-21.27735813972485
 30
0.0
 42
-0.0436214070618093
  0
VERTEX
  5
74B
  8
DRAFT
 10
-789.6581733629001
 20
-21.27735813972501
 30
0.0
  0
VERTEX
  5
74C
  8
DRAFT
 10
-791.4162235922344
 20
-21.12368848680226
 30
0.0
 42
-0.3889014466554614
  0
VERTEX
  5
74D
  8
DRAFT
 10
-793.0138386329609
 20
-19.38033573300064
 30
0.0
  0
VERTEX
  5
74E
  8
DRAFT
 10
-793.0138386329601
 20
-14.94389189155518
 30
0.0
 42
0.3369513388573382
  0
VERTEX
  5
74F
  8
DRAFT
 10
-794.2957373842653
 20
-13.25765904254389
 30
0.0
 42
-0.1738231547478845
  0
VERTEX
  5
750
  8
DRAFT
 10
-794.3646429778032
 20
-13.20898596771393
 30
0.0
  0
VERTEX
  5
751
  8
DRAFT
 10
-794.6322195338179
 20
-12.827442894913
 30
0.0
 42
0.2214558604891785
  0
VERTEX
  5
752
  8
DRAFT
 10
-794.677931928104
 20
-12.80106768381357
 30
0.0
  0
VERTEX
  5
753
  8
DRAFT
 10
-794.7227972252092
 20
-12.79713439915488
 30
0.0
 42
-0.1622776624622377
  0
VERTEX
  5
754
  8
DRAFT
 10
-794.7590622698422
 20
-12.78140714320209
 30
0.0
  0
VERTEX
  5
755
  8
DRAFT
 10
-794.7668179286226
 20
-12.77445324004987
 30
0.0
 42
1.989253265165161
  0
VERTEX
  5
756
  8
DRAFT
 10
-794.7759770265795
 20
-12.8739860805053
 30
0.0
  0
VERTEX
  5
757
  8
DRAFT
 10
-794.7668370281995
 20
-12.8683701578283
 30
0.0
 42
-0.1609716664726479
  0
VERTEX
  5
758
  8
DRAFT
 10
-794.7286593155218
 20
-12.85936019884488
 30
0.0
  0
VERTEX
  5
759
  8
DRAFT
 10
-794.7098629570612
 20
-12.86100805215547
 30
0.0
 42
-0.226170571400984
  0
VERTEX
  5
75A
  8
DRAFT
 10
-794.6635143658398
 20
-12.88830798664319
 30
0.0
  0
VERTEX
  5
75B
  8
DRAFT
 10
-794.5894879479913
 20
-12.99800320795378
 30
0.0
 42
-0.6310043784667442
  0
VERTEX
  5
75C
  8
DRAFT
 10
-794.7039864929015
 20
-13.19245092390427
 30
0.0
  0
VERTEX
  5
75D
  8
DRAFT
 10
-795.2883574440389
 20
-13.14137156351898
 30
0.0
 42
-0.2215234308504834
  0
VERTEX
  5
75E
  8
DRAFT
 10
-795.379814315183
 20
-13.08861833284559
 30
0.0
  0
VERTEX
  5
75F
  8
DRAFT
 10
-795.6239414458422
 20
-12.74051111447893
 30
0.0
 42
0.2214558604894236
  0
VERTEX
  5
760
  8
DRAFT
 10
-795.6696538401286
 20
-12.71413590337965
 30
0.0
  0
VERTEX
  5
761
  8
DRAFT
 10
-795.7145191372335
 20
-12.71020261872124
 30
0.0
 42
-0.1622776624668087
  0
VERTEX
  5
762
  8
DRAFT
 10
-795.7507841818666
 20
-12.69447536276826
 30
0.0
  0
VERTEX
  5
763
  8
DRAFT
 10
-795.758539840647
 20
-12.68752145961527
 30
0.0
 42
1.989253265100573
  0
VERTEX
  5
764
  8
DRAFT
 10
-795.7676989386036
 20
-12.78705430007137
 30
0.0
  0
VERTEX
  5
765
  8
DRAFT
 10
-795.7585589402238
 20
-12.78143837739436
 30
0.0
 42
-0.1609716664674111
  0
VERTEX
  5
766
  8
DRAFT
 10
-795.7203812275466
 20
-12.77242841841095
 30
0.0
  0
VERTEX
  5
767
  8
DRAFT
 10
-795.701584869086
 20
-12.77407627172209
 30
0.0
 42
-0.2261705714035976
  0
VERTEX
  5
768
  8
DRAFT
 10
-795.6552362778643
 20
-12.80137620620928
 30
0.0
  0
VERTEX
  5
769
  8
DRAFT
 10
-795.5810332830251
 20
-12.91133308616209
 30
0.0
 42
-0.6310043784629318
  0
VERTEX
  5
76A
  8
DRAFT
 10
-795.6955318279365
 20
-13.10578080211279
 30
0.0
  0
VERTEX
  5
76B
  8
DRAFT
 10
-795.9522917385782
 20
-13.08333763996936
 30
0.0
 42
-0.4142489508345436
  0
VERTEX
  5
76C
  8
DRAFT
 10
-796.2932094607867
 20
-12.67706299401549
 30
0.0
  0
VERTEX
  5
76D
  8
DRAFT
 10
-796.2277815443499
 20
-11.92957920461117
 30
0.0
 42
-0.4141732650304558
  0
VERTEX
  5
76E
  8
DRAFT
 10
-795.8215622448647
 20
-11.58870212302537
 30
0.0
  0
VERTEX
  5
76F
  8
DRAFT
 10
-795.5648770595493
 20
-11.61113441769861
 30
0.0
 42
-0.6310947064845774
  0
VERTEX
  5
770
  8
DRAFT
 10
-795.4858690315431
 20
-11.8225199346553
 30
0.0
  0
VERTEX
  5
771
  8
DRAFT
 10
-795.5778919991126
 20
-11.91775346963762
 30
0.0
 42
-0.2261705714138281
  0
VERTEX
  5
772
  8
DRAFT
 10
-795.6282786132768
 20
-11.93658608613876
 30
0.0
  0
VERTEX
  5
773
  8
DRAFT
 10
-795.6470754219517
 20
-11.93494337631891
 30
0.0
 42
-0.1609716664561853
  0
VERTEX
  5
774
  8
DRAFT
 10
-795.6831072672189
 20
-11.91943778917011
 30
0.0
  0
VERTEX
  5
775
  8
DRAFT
 10
-795.6911326172653
 20
-11.91231936838069
 30
0.0
 42
1.998067170435569
  0
VERTEX
  5
776
  8
DRAFT
 10
-795.6994047101466
 20
-12.01192984917463
 30
0.0
  0
VERTEX
  5
777
  8
DRAFT
 10
-795.6905588836554
 20
-12.00642908869391
 30
0.0
 42
-0.1622776624770673
  0
VERTEX
  5
778
  8
DRAFT
 10
-795.6521130071515
 20
-11.99724134567025
 30
0.0
  0
VERTEX
  5
779
  8
DRAFT
 10
-795.6072466354232
 20
-12.0011623532561
 30
0.0
 42
0.2214558604925769
  0
VERTEX
  5
77A
  8
DRAFT
 10
-795.557647196517
 20
-11.98312987111768
 30
0.0
  0
VERTEX
  5
77B
  8
DRAFT
 10
-795.2568176210891
 20
-11.68279060064273
 30
0.0
 42
-0.2214556596393497
  0
VERTEX
  5
77C
  8
DRAFT
 10
-795.157618838644
 20
-11.64672562803084
 30
0.0
  0
VERTEX
  5
77D
  8
DRAFT
 10
-794.5731226470833
 20
-11.69780606256623
 30
0.0
 42
-0.631094706477277
  0
VERTEX
  5
77E
  8
DRAFT
 10
-794.4941146190771
 20
-11.90919157952248
 30
0.0
  0
VERTEX
  5
77F
  8
DRAFT
 10
-794.5861482864291
 20
-12.00443618758994
 30
0.0
 42
-0.2261705714122844
  0
VERTEX
  5
780
  8
DRAFT
 10
-794.6365349005933
 20
-12.02326880409104
 30
0.0
  0
VERTEX
  5
781
  8
DRAFT
 10
-794.6553317092685
 20
-12.02162609427164
 30
0.0
 42
-0.1609716664745262
  0
VERTEX
  5
782
  8
DRAFT
 10
-794.6913635545352
 20
-12.00612050712214
 30
0.0
  0
VERTEX
  5
783
  8
DRAFT
 10
-794.6993889045815
 20
-11.9990020863328
 30
0.0
 42
1.998067170477404
  0
VERTEX
  5
784
  8
DRAFT
 10
-794.7076609974633
 20
-12.09861256712644
 30
0.0
  0
VERTEX
  5
785
  8
DRAFT
 10
-794.6988151709722
 20
-12.09311180664595
 30
0.0
 42
-0.1622776624717359
  0
VERTEX
  5
786
  8
DRAFT
 10
-794.6603692944682
 20
-12.08392406362241
 30
0.0
  0
VERTEX
  5
787
  8
DRAFT
 10
-794.6155029227396
 20
-12.08784507120854
 30
0.0
 42
0.2214558604934709
  0
VERTEX
  5
788
  8
DRAFT
 10
-794.5659034838334
 20
-12.06981258906976
 30
0.0
  0
VERTEX
  5
789
  8
DRAFT
 10
-794.2650618307796
 20
-11.76946221356125
 30
0.0
 42
-0.2214552436141526
  0
VERTEX
  5
78A
  8
DRAFT
 10
-794.1658631886609
 20
-11.7333973810477
 30
0.0
  0
VERTEX
  5
78B
  8
DRAFT
 10
-789.6581088872817
 20
-12.12735813972458
 30
0.0
 42
0.0436214061426593
  0
VERTEX
  5
78C
  8
DRAFT
 10
-785.292778432236
 20
-12.1273581397243
 30
0.0
  0
SEQEND
  5
78D
  8
DRAFT
  0
POLYLINE
  5
78E
  8
DRAFT
 66
     1
 10
0.0
 20
0.0
 30
0.0
  0
VERTEX
  5
78F
  8
DRAFT
 10
-779.3860102599693
 20
-11.61113441769842
 30
0.0
 42
0.6310947064843886
  0
VERTEX
  5
790
  8
DRAFT
 10
-779.4650182879751
 20
-11.82251993465449
 30
0.0
  0
VERTEX
  5
791
  8
DRAFT
 10
-779.3729953204057
 20
-11.91775346963697
 30
0.0
 42
0.2261705714002547
  0
VERTEX
  5
792
  8
DRAFT
 10
-779.3226087062416
 20
-11.93658608613818
 30
0.0
  0
VERTEX
  5
793
  8
DRAFT
 10
-779.3038118975663
 20
-11.93494337631847
 30
0.0
 42
0.1609716664744152
  0
VERTEX
  5
794
  8
DRAFT
 10
-779.2677800522998
 20
-11.9194377891693
 30
0.0
  0
VERTEX
  5
795
  8
DRAFT
 10
-779.2597547022534
 20
-11.91231936838021
 30
0.0
 42
-2.022848026559158
  0
VERTEX
  5
796
  8
DRAFT
 10
-779.2514826093714
 20
-12.01192984917346
 30
0.0
  0
VERTEX
  5
797
  8
DRAFT
 10
-779.2603284358626
 20
-12.00642908869323
 30
0.0
 42
0.1622776624709655
  0
VERTEX
  5
798
  8
DRAFT
 10
-779.2987743123667
 20
-11.99724134566982
 30
0.0
  0
VERTEX
  5
799
  8
DRAFT
 10
-779.3436406840952
 20
-12.00116235325557
 30
0.0
 42
-0.2214558604975963
  0
VERTEX
  5
79A
  8
DRAFT
 10
-779.3932401230015
 20
-11.98312987111703
 30
0.0
  0
VERTEX
  5
79B
  8
DRAFT
 10
-779.6940696984295
 20
-11.68279060064208
 30
0.0
 42
0.2214556596428263
  0
VERTEX
  5
79C
  8
DRAFT
 10
-779.7932684808742
 20
-11.64672562803024
 30
0.0
  0
SEQEND
  5
79D
  8
DRAFT
  0
POLYLINE
  5
79E
  8
DRAFT
 66
     1
 10
0.0
 20
0.0
 30
0.0
  0
VERTEX
  5
79F
  8
DRAFT
 10
-780.3777646724351
 20
-11.69780606256588
 30
0.0
 42
0.6310947064871463
  0
VERTEX
  5
7A0
  8
DRAFT
 10
-780.4567727004413
 20
-11.90919157952177
 30
0.0
  0
VERTEX
  5
7A1
  8
DRAFT
 10
-780.3647390330892
 20
-12.00443618758929
 30
0.0
 42
0.2261705713975864
  0
VERTEX
  5
7A2
  8
DRAFT
 10
-780.3143524189248
 20
-12.02326880409051
 30
0.0
  0
VERTEX
  5
7A3
  8
DRAFT
 10
-780.2955556102497
 20
-12.02162609427085
 30
0.0
 42
0.1609716664755865
  0
VERTEX
  5
7A4
  8
DRAFT
 10
-780.2595237649832
 20
-12.00612050712147
 30
0.0
  0
VERTEX
  5
7A5
  8
DRAFT
 10
-780.2514984149369
 20
-11.99900208633252
 30
0.0
 42
-2.022848026536894
  0
VERTEX
  5
7A6
  8
DRAFT
 10
-780.2432263220546
 20
-12.0986125671258
 30
0.0
  0
VERTEX
  5
7A7
  8
DRAFT
 10
-780.2520721485462
 20
-12.09311180664536
 30
0.0
 42
0.1622776624701161
  0
VERTEX
  5
7A8
  8
DRAFT
 10
-780.29051802505
 20
-12.08392406362212
 30
0.0
  0
VERTEX
  5
7A9
  8
DRAFT
 10
-780.3353843967784
 20
-12.08784507120796
 30
0.0
 42
-0.2214558604918924
  0
VERTEX
  5
7AA
  8
DRAFT
 10
-780.3849838356849
 20
-12.06981258906914
 30
0.0
  0
VERTEX
  5
7AB
  8
DRAFT
 10
-780.6858254887389
 20
-11.76946221356072
 30
0.0
 42
0.2214552436138142
  0
VERTEX
  5
7AC
  8
DRAFT
 10
-780.7850241308576
 20
-11.73339738104724
 30
0.0
  0
SEQEND
  5
7AD
  8
DRAFT
  0
POLYLINE
  5
7AE
  8
DRAFT
 66
     1
 10
0.0
 20
0.0
 30
0.0
  0
VERTEX
  5
7AF
  8
DRAFT
 10
-778.99859558094
 20
-13.08333763996878
 30
0.0
 42
0.4142489508365908
  0
VERTEX
  5
7B0
  8
DRAFT
 10
-778.6576778587313
 20
-12.67706299401478
 30
0.0
  0
VERTEX
  5
7B1
  8
DRAFT
 10
-778.7231057751684
 20
-11.92957920461046
 30
0.0
 42
0.4141732650328572
  0
VERTEX
  5
7B2
  8
DRAFT
 10
-779.1293250746536
 20
-11.58870212302536
 30
0.0
  0
SEQEND
  5
7B3
  8
DRAFT
  0
POLYLINE
  5
7B4
  8
DRAFT
 66
     1
 10
0.0
 20
0.0
 30
0.0
 70
     1
  0
VERTEX
  5
7B5
  8
DRAFT
 10
-759.0480859726383
 20
-12.23941945328756
 30
0.0
 42
-0.4142135623669165
  0
VERTEX
  5
7B6
  8
DRAFT
 10
-759.0196799237888
 20
-12.20556356179468
 30
0.0
  0
VERTEX
  5
7B7
  8
DRAFT
 10
-758.602231329261
 20
-12.16902391752915
 30
0.0
 42
-0.4142135623888206
  0
VERTEX
  5
7B8
  8
DRAFT
 10
-758.568375437769
 20
-12.19742996637918
 30
0.0
  0
VERTEX
  5
7B9
  8
DRAFT
 10
-758.5209239783958
 20
-12.7395410192185
 30
0.0
 42
-0.4142135623695252
  0
VERTEX
  5
7BA
  8
DRAFT
 10
-758.5493300272456
 20
-12.77339691071135
 30
0.0
  0
VERTEX
  5
7BB
  8
DRAFT
 10
-758.9667786217733
 20
-12.80993655497683
 30
0.0
 42
-0.4142135623689402
  0
VERTEX
  5
7BC
  8
DRAFT
 10
-759.0006345132659
 20
-12.78153050612669
 30
0.0
  0
SEQEND
  5
7BD
  8
DRAFT
  0
POLYLINE
  5
7BE
  8
DRAFT
 66
     1
 10
0.0
 20
0.0
 30
0.0
 70
     1
  0
VERTEX
  5
7BF
  8
DRAFT
 10
-760.1523658582355
 20
-13.08332391952241
 30
0.0
  0
VERTEX
  5
7C0
  8
DRAFT
 10
-760.2165531832704
 20
-12.34965943720106
 30
0.0
 42
-0.4142135331003247
  0
VERTEX
  5
7C1
  8
DRAFT
 10
-760.1881457190286
 20
-12.31580473619705
 30
0.0
  0
VERTEX
  5
7C2
  8
DRAFT
 10
-759.6621039361619
 20
-12.2697819906464
 30
0.0
 42
-0.4142135778006935
  0
VERTEX
  5
7C3
  8
DRAFT
 10
-759.6282492319019
 20
-12.29818945625329
 30
0.0
  0
VERTEX
  5
7C4
  8
DRAFT
 10
-759.5640618718191
 20
-13.0318539387515
 30
0.0
 42
-1.00000000003695
  0
VERTEX
  5
7C5
  8
DRAFT
 10
-759.603909659743
 20
-13.03534016846129
 30
0.0
  0
VERTEX
  5
7C6
  8
DRAFT
 10
-759.6166270899126
 20
-12.88997961132463
 30
0.0
 42
0.4142135183895444
  0
VERTEX
  5
7C7
  8
DRAFT
 10
-759.6504817921953
 20
-12.8615721503319
 30
0.0
  0
VERTEX
  5
7C8
  8
DRAFT
 10
-760.0968280075635
 20
-12.90062240659882
 30
0.0
 42
0.4142135477797916
  0
VERTEX
  5
7C9
  8
DRAFT
 10
-760.125235473366
 20
-12.93447710773921
 30
0.0
  0
VERTEX
  5
7CA
  8
DRAFT
 10
-760.1125180703116
 20
-13.0798376898124
 30
0.0
 42
-0.9999999999788266
  0
SEQEND
  5
7CB
  8
DRAFT
  0
POLYLINE
  5
7CC
  8
DRAFT
 66
     1
 10
0.0
 20
0.0
 30
0.0
  0
VERTEX
  5
7CD
  8
DRAFT
 10
-757.7092809256242
 20
-12.05335370308445
 30
0.0
  0
VERTEX
  5
7CE
  8
DRAFT
 10
-757.6844935638137
 20
-12.05118746164143
 30
0.0
 42
-0.1624911418136383
  0
VERTEX
  5
7CF
  8
DRAFT
 10
-757.6087792303804
 20
-12.0688397674118
 30
0.0
 42
-0.0901239739881408
  0
VERTEX
  5
7D0
  8
DRAFT
 10
-757.4741471837503
 20
-12.18956234523701
 30
0.0
 42
-0.2945408183574525
  0
VERTEX
  5
7D1
  8
DRAFT
 10
-757.4402240046766
 20
-12.57773053829077
 30
0.0
 42
-0.0931204833771579
  0
VERTEX
  5
7D2
  8
DRAFT
 10
-757.5518744461406
 20
-12.71997647917338
 30
0.0
 42
-0.1594425821312738
  0
VERTEX
  5
7D3
  8
DRAFT
 10
-757.6233790145293
 20
-12.75049468498147
 30
0.0
  0
VERTEX
  5
7D4
  8
DRAFT
 10
-757.6481663763011
 20
-12.752660926868
 30
0.0
  0
SEQEND
  5
7D5
  8
DRAFT
  0
POLYLINE
  5
7D6
  8
DRAFT
 66
     1
 10
0.0
 20
0.0
 30
0.0
  0
VERTEX
  5
7D7
  8
DRAFT
 10
-779.6625298754789
 20
-13.14137156351823
 30
0.0
 42
0.2215234308548036
  0
VERTEX
  5
7D8
  8
DRAFT
 10
-779.5710730043354
 20
-13.0886183328447
 30
0.0
  0
VERTEX
  5
7D9
  8
DRAFT
 10
-779.3269458736759
 20
-12.74051111447838
 30
0.0
 42
-0.2214558605047051
  0
VERTEX
  5
7DA
  8
DRAFT
 10
-779.2812334793896
 20
-12.71413590337915
 30
0.0
  0
VERTEX
  5
7DB
  8
DRAFT
 10
-779.2363681822844
 20
-12.71020261872024
 30
0.0
 42
0.1622776624693992
  0
VERTEX
  5
7DC
  8
DRAFT
 10
-779.2001031376514
 20
-12.69447536276762
 30
0.0
  0
VERTEX
  5
7DD
  8
DRAFT
 10
-779.1923474788709
 20
-12.687521459615
 30
0.0
 42
-2.01385859608134
  0
VERTEX
  5
7DE
  8
DRAFT
 10
-779.1831883809142
 20
-12.7870543000707
 30
0.0
  0
VERTEX
  5
7DF
  8
DRAFT
 10
-779.1923283792939
 20
-12.78143837739366
 30
0.0
 42
0.160971666472963
  0
VERTEX
  5
7E0
  8
DRAFT
 10
-779.2305060919716
 20
-12.77242841841042
 30
0.0
  0
VERTEX
  5
7E1
  8
DRAFT
 10
-779.249302450432
 20
-12.77407627172125
 30
0.0
 42
0.2261705714079033
  0
VERTEX
  5
7E2
  8
DRAFT
 10
-779.2956510416539
 20
-12.80137620620851
 30
0.0
  0
VERTEX
  5
7E3
  8
DRAFT
 10
-779.3698540364928
 20
-12.91133308616144
 30
0.0
 42
0.631004378461567
  0
VERTEX
  5
7E4
  8
DRAFT
 10
-779.2553554915819
 20
-13.10578080211217
 30
0.0
  0
SEQEND
  5
7E5
  8
DRAFT
  0
POLYLINE
  5
7E6
  8
DRAFT
 66
     1
 10
0.0
 20
0.0
 30
0.0
  0
VERTEX
  5
7E7
  8
DRAFT
 10
-780.6551499352613
 20
-13.25765904251192
 30
0.0
 42
0.1738231549397652
  0
VERTEX
  5
7E8
  8
DRAFT
 10
-780.5862443417147
 20
-13.20898596771337
 30
0.0
  0
VERTEX
  5
7E9
  8
DRAFT
 10
-780.3186677857001
 20
-12.82744289491243
 30
0.0
 42
-0.2214558604994273
  0
VERTEX
  5
7EA
  8
DRAFT
 10
-780.2729553914141
 20
-12.80106768381277
 30
0.0
  0
VERTEX
  5
7EB
  8
DRAFT
 10
-780.2280900943088
 20
-12.7971343991542
 30
0.0
 42
0.1622776624619975
  0
VERTEX
  5
7EC
  8
DRAFT
 10
-780.1918250496758
 20
-12.78140714320158
 30
0.0
  0
VERTEX
  5
7ED
  8
DRAFT
 10
-780.1840693908953
 20
-12.77445324004888
 30
0.0
 42
-2.013858596056745
  0
VERTEX
  5
7EE
  8
DRAFT
 10
-780.1749102929384
 20
-12.87398608050512
 30
0.0
  0
VERTEX
  5
7EF
  8
DRAFT
 10
-780.1840502913182
 20
-12.86837015782749
 30
0.0
 42
0.1609716664708622
  0
VERTEX
  5
7F0
  8
DRAFT
 10
-780.2222280039964
 20
-12.85936019884411
 30
0.0
  0
VERTEX
  5
7F1
  8
DRAFT
 10
-780.2410243624565
 20
-12.86100805215509
 30
0.0
 42
0.2261705714171046
  0
VERTEX
  5
7F2
  8
DRAFT
 10
-780.2873729536783
 20
-12.88830798664254
 30
0.0
  0
VERTEX
  5
7F3
  8
DRAFT
 10
-780.3613993715276
 20
-12.9980032079529
 30
0.0
 42
0.6310043784703913
  0
VERTEX
  5
7F4
  8
DRAFT
 10
-780.2469008266166
 20
-13.19245092390328
 30
0.0
  0
SEQEND
  5
7F5
  8
DRAFT
  0
POLYLINE
  5
7F6
  8
DRAFT
 66
     1
 10
0.0
 20
0.0
 30
0.0
 70
     1
  0
VERTEX
  5
7F7
  8
DRAFT
 10
-793.7492214540771
 20
-12.23941945328897
 30
0.0
 42
0.4142135623540636
  0
VERTEX
  5
7F8
  8
DRAFT
 10
-793.7776275029273
 20
-12.20556356179683
 30
0.0
  0
VERTEX
  5
7F9
  8
DRAFT
 10
-794.1950760974541
 20
-12.16902391753059
 30
0.0
 42
0.4142135623803133
  0
VERTEX
  5
7FA
  8
DRAFT
 10
-794.228931988947
 20
-12.19742996638059
 30
0.0
  0
VERTEX
  5
7FB
  8
DRAFT
 10
-794.2763834483196
 20
-12.73954101921995
 30
0.0
 42
0.4142135623669702
  0
VERTEX
  5
7FC
  8
DRAFT
 10
-794.2479773994701
 20
-12.77339691071265
 30
0.0
  0
VERTEX
  5
7FD
  8
DRAFT
 10
-793.8305288049421
 20
-12.80993655497831
 30
0.0
 42
0.4142135623645681
  0
VERTEX
  5
7FE
  8
DRAFT
 10
-793.79667291345
 20
-12.78153050612807
 30
0.0
  0
SEQEND
  5
7FF
  8
DRAFT
  0
POLYLINE
  5
800
  8
DRAFT
 66
     1
 10
0.0
 20
0.0
 30
0.0
 70
     1
  0
VERTEX
  5
801
  8
DRAFT
 10
-792.6449415684799
 20
-13.08332391952373
 30
0.0
  0
VERTEX
  5
802
  8
DRAFT
 10
-792.5807542434449
 20
-12.34965943720238
 30
0.0
 42
0.4142135330914031
  0
VERTEX
  5
803
  8
DRAFT
 10
-792.6091617076866
 20
-12.31580473619907
 30
0.0
  0
VERTEX
  5
804
  8
DRAFT
 10
-793.1352034905535
 20
-12.26978199064775
 30
0.0
 42
0.4142135777856909
  0
VERTEX
  5
805
  8
DRAFT
 10
-793.1690581948137
 20
-12.29818945625465
 30
0.0
  0
VERTEX
  5
806
  8
DRAFT
 10
-793.2332455548963
 20
-13.03185393875285
 30
0.0
 42
0.9999999999770753
  0
VERTEX
  5
807
  8
DRAFT
 10
-793.1933977669718
 20
-13.03534016846263
 30
0.0
  0
VERTEX
  5
808
  8
DRAFT
 10
-793.1806803368029
 20
-12.88997961132598
 30
0.0
 42
-0.4142135183886333
  0
VERTEX
  5
809
  8
DRAFT
 10
-793.1468256345204
 20
-12.86157215033349
 30
0.0
  0
VERTEX
  5
80A
  8
DRAFT
 10
-792.7004794191519
 20
-12.90062240660014
 30
0.0
 42
-0.4142135477629929
  0
VERTEX
  5
80B
  8
DRAFT
 10
-792.6720719533495
 20
-12.93447710774052
 30
0.0
  0
VERTEX
  5
80C
  8
DRAFT
 10
-792.6847893564038
 20
-13.07983768981372
 30
0.0
 42
1.000000000027269
  0
SEQEND
  5
80D
  8
DRAFT
  0
POLYLINE
  5
80E
  8
DRAFT
 66
     1
 10
0.0
 20
0.0
 30
0.0
  0
VERTEX
  5
80F
  8
DRAFT
 10
-795.0880265010912
 20
-12.05335370308597
 30
0.0
  0
VERTEX
  5
810
  8
DRAFT
 10
-795.1128138629019
 20
-12.05118746164293
 30
0.0
 42
0.1624911418096724
  0
VERTEX
  5
811
  8
DRAFT
 10
-795.1885281963348
 20
-12.0688397674133
 30
0.0
 42
0.0901239739914478
  0
VERTEX
  5
812
  8
DRAFT
 10
-795.3231602429653
 20
-12.18956234523858
 30
0.0
 42
0.294540818354577
  0
VERTEX
  5
813
  8
DRAFT
 10
-795.3570834220388
 20
-12.57773053829234
 30
0.0
 42
0.0931204833698547
  0
VERTEX
  5
814
  8
DRAFT
 10
-795.2454329805748
 20
-12.71997647917496
 30
0.0
 42
0.1594425821273767
  0
VERTEX
  5
815
  8
DRAFT
 10
-795.1739284121861
 20
-12.75049468498305
 30
0.0
  0
VERTEX
  5
816
  8
DRAFT
 10
-795.1491410504141
 20
-12.7526609268695
 30
0.0
  0
SEQEND
  5
817
  8
DRAFT
  0
POLYLINE
  5
818
  8
DRAFT
 66
     1
 10
0.0
 20
0.0
 30
0.0
 70
     1
  0
VERTEX
  5
819
  8
DRAFT
 10
-781.2016658654406
 20
-12.23941945328846
 30
0.0
 42
-0.4142135623756988
  0
VERTEX
  5
81A
  8
DRAFT
 10
-781.1732598165911
 20
-12.20556356179599
 30
0.0
  0
VERTEX
  5
81B
  8
DRAFT
 10
-780.7558112220636
 20
-12.16902391753011
 30
0.0
 42
-0.414213562369806
  0
VERTEX
  5
81C
  8
DRAFT
 10
-780.7219553305708
 20
-12.19742996638004
 30
0.0
  0
VERTEX
  5
81D
  8
DRAFT
 10
-780.6745038711983
 20
-12.73954101921941
 30
0.0
 42
-0.4142135623988069
  0
VERTEX
  5
81E
  8
DRAFT
 10
-780.7029099200486
 20
-12.77339691071124
 30
0.0
  0
VERTEX
  5
81F
  8
DRAFT
 10
-781.1203585145759
 20
-12.80993655497764
 30
0.0
 42
-0.4142135623546709
  0
VERTEX
  5
820
  8
DRAFT
 10
-781.1542144060676
 20
-12.78153050612756
 30
0.0
  0
SEQEND
  5
821
  8
DRAFT
  0
POLYLINE
  5
822
  8
DRAFT
 66
     1
 10
0.0
 20
0.0
 30
0.0
 70
     1
  0
VERTEX
  5
823
  8
DRAFT
 10
-782.305945751038
 20
-13.0833239195233
 30
0.0
  0
VERTEX
  5
824
  8
DRAFT
 10
-782.3701330760731
 20
-12.34965943720196
 30
0.0
 42
-0.4142135330970976
  0
VERTEX
  5
825
  8
DRAFT
 10
-782.3417256118312
 20
-12.31580473619784
 30
0.0
  0
VERTEX
  5
826
  8
DRAFT
 10
-781.8156838289644
 20
-12.2697819906473
 30
0.0
 42
-0.4142135777866369
  0
VERTEX
  5
827
  8
DRAFT
 10
-781.7818291247032
 20
-12.2981894562541
 30
0.0
  0
VERTEX
  5
828
  8
DRAFT
 10
-781.7176417646217
 20
-13.03185393875239
 30
0.0
 42
-1.000000000007398
  0
VERTEX
  5
829
  8
DRAFT
 10
-781.7574895525461
 20
-13.03534016846215
 30
0.0
  0
VERTEX
  5
82A
  8
DRAFT
 10
-781.7702069827151
 20
-12.88997961132551
 30
0.0
 42
0.414213518384468
  0
VERTEX
  5
82B
  8
DRAFT
 10
-781.8040616849978
 20
-12.86157215033382
 30
0.0
  0
VERTEX
  5
82C
  8
DRAFT
 10
-782.2504079003661
 20
-12.90062240659972
 30
0.0
 42
0.414213547784884
  0
VERTEX
  5
82D
  8
DRAFT
 10
-782.2788153661685
 20
-12.93447710774007
 30
0.0
  0
VERTEX
  5
82E
  8
DRAFT
 10
-782.2660979631139
 20
-13.07983768981327
 30
0.0
 42
-1.000000000030155
  0
SEQEND
  5
82F
  8
DRAFT
  0
POLYLINE
  5
830
  8
DRAFT
 66
     1
 10
0.0
 20
0.0
 30
0.0
  0
VERTEX
  5
831
  8
DRAFT
 10
-779.8628608184267
 20
-12.05335370308534
 30
0.0
  0
VERTEX
  5
832
  8
DRAFT
 10
-779.8380734566163
 20
-12.05118746164224
 30
0.0
 42
-0.1624911418119561
  0
VERTEX
  5
833
  8
DRAFT
 10
-779.7623591231829
 20
-12.06883976741256
 30
0.0
 42
-0.0901239739901909
  0
VERTEX
  5
834
  8
DRAFT
 10
-779.6277270765531
 20
-12.18956234523788
 30
0.0
 42
-0.2945408183568243
  0
VERTEX
  5
835
  8
DRAFT
 10
-779.5938038974791
 20
-12.57773053829164
 30
0.0
 42
-0.093120483369081
  0
VERTEX
  5
836
  8
DRAFT
 10
-779.7054543389428
 20
-12.71997647917439
 30
0.0
 42
-0.1594425821295083
  0
VERTEX
  5
837
  8
DRAFT
 10
-779.7769589073318
 20
-12.75049468498203
 30
0.0
  0
VERTEX
  5
838
  8
DRAFT
 10
-779.8017462691037
 20
-12.75266092686889
 30
0.0
  0
SEQEND
  5
839
  8
DRAFT
  0
LINE
  5
83A
  8
DRAFT
 10
-792.6295005485997
 20
-12.90683225468498
 30
0.0
 11
-792.6449415684799
 21
-13.08332391952373
 31
0.0
  0
LINE
  5
83B
  8
DRAFT
 10
-782.3213867709183
 20
-12.90683225468455
 30
0.0
 11
-782.305945751038
 21
-13.0833239195233
 31
0.0
  0
LINE
  5
83C
  8
DRAFT
 10
-760.1678068781157
 20
-12.90683225468366
 30
0.0
 11
-760.1523658582355
 21
-13.08332391952241
 31
0.0
  0
POLYLINE
  5
83D
  8
DRAFT
 66
     1
 10
0.0
 20
0.0
 30
0.0
  0
VERTEX
  5
83E
  8
DRAFT
 10
-751.676894636616
 20
-13.58617909819758
 30
0.0
 42
-0.3369511922796151
  0
VERTEX
  5
83F
  8
DRAFT
 10
-753.3631268776336
 20
-14.86807744623901
 30
0.0
  0
VERTEX
  5
840
  8
DRAFT
 10
-757.7995707190792
 20
-14.86807744623816
 30
0.0
 42
0.388901446655777
  0
VERTEX
  5
841
  8
DRAFT
 10
-759.542923472881
 20
-16.46569248696404
 30
0.0
  0
VERTEX
  5
842
  8
DRAFT
 10
-759.6965931258037
 20
-18.22374271629802
 30
0.0
 42
0.0436214070618838
  0
VERTEX
  5
843
  8
DRAFT
 10
-759.6965931258042
 20
-22.58920212257978
 30
0.0
  0
VERTEX
  5
844
  8
DRAFT
 10
-759.5429234728816
 20
-24.34725235191386
 30
0.0
 42
0.3889014466556824
  0
VERTEX
  5
845
  8
DRAFT
 10
-757.79957071908
 20
-25.94486739264018
 30
0.0
  0
VERTEX
  5
846
  8
DRAFT
 10
-753.3631268776346
 20
-25.94486739263993
 30
0.0
 42
-0.3369511922797261
  0
VERTEX
  5
847
  8
DRAFT
 10
-751.676894636617
 20
-27.22676574068167
 30
0.0
  0
SEQEND
  5
848
  8
DRAFT
  0
POLYLINE
  5
849
  8
DRAFT
 66
     1
 10
0.0
 20
0.0
 30
0.0
  0
VERTEX
  5
84A
  8
DRAFT
 10
-753.3631268776345
 20
-25.94486739263992
 30
0.0
 42
-0.336951338847061
  0
VERTEX
  5
84B
  8
DRAFT
 10
-751.676894028592
 20
-27.22676614393698
 30
0.0
 42
0.1738231549379433
  0
VERTEX
  5
84C
  8
DRAFT
 10
-751.6282209537935
 20
-27.29567173748375
 30
0.0
  0
VERTEX
  5
84D
  8
DRAFT
 10
-751.2466778809927
 20
-27.56324829349823
 30
0.0
 42
-0.2214558604994853
  0
VERTEX
  5
84E
  8
DRAFT
 10
-751.2203026698932
 20
-27.60896068778466
 30
0.0
  0
VERTEX
  5
84F
  8
DRAFT
 10
-751.2163693852343
 20
-27.65382598488991
 30
0.0
 42
0.1622776624709413
  0
VERTEX
  5
850
  8
DRAFT
 10
-751.2006421292817
 20
-27.69009102952279
 30
0.0
  0
VERTEX
  5
851
  8
DRAFT
 10
-751.1936882261291
 20
-27.69784668830344
 30
0.0
 42
-1.989253265142918
  0
VERTEX
  5
852
  8
DRAFT
 10
-751.293221066585
 20
-27.70700578626005
 30
0.0
  0
VERTEX
  5
853
  8
DRAFT
 10
-751.2876051439077
 20
-27.6978657878803
 30
0.0
 42
0.1609716664668929
  0
VERTEX
  5
854
  8
DRAFT
 10
-751.2785951849245
 20
-27.65968807520246
 30
0.0
  0
VERTEX
  5
855
  8
DRAFT
 10
-751.2802430382353
 20
-27.64089171674207
 30
0.0
 42
0.226170571415643
  0
VERTEX
  5
856
  8
DRAFT
 10
-751.3075429727228
 20
-27.59454312552015
 30
0.0
  0
VERTEX
  5
857
  8
DRAFT
 10
-751.4172381940332
 20
-27.52051670767137
 30
0.0
 42
0.6310043784627397
  0
VERTEX
  5
858
  8
DRAFT
 10
-751.6116859099836
 20
-27.63501525258218
 30
0.0
  0
VERTEX
  5
859
  8
DRAFT
 10
-751.5606065495986
 20
-28.21938620371962
 30
0.0
 42
0.221523430848223
  0
VERTEX
  5
85A
  8
DRAFT
 10
-751.5078533189253
 20
-28.31084307486378
 30
0.0
  0
VERTEX
  5
85B
  8
DRAFT
 10
-751.1597461005588
 20
-28.55497020552285
 30
0.0
 42
-0.2214558604994032
  0
VERTEX
  5
85C
  8
DRAFT
 10
-751.1333708894592
 20
-28.60068259980918
 30
0.0
  0
VERTEX
  5
85D
  8
DRAFT
 10
-751.1294376048006
 20
-28.64554789691442
 30
0.0
 42
0.1622776624742004
  0
VERTEX
  5
85E
  8
DRAFT
 10
-751.1137103488479
 20
-28.68181294154727
 30
0.0
  0
VERTEX
  5
85F
  8
DRAFT
 10
-751.1067564456954
 20
-28.68956860032793
 30
0.0
 42
-1.989253265120744
  0
VERTEX
  5
860
  8
DRAFT
 10
-751.2062892861508
 20
-28.69872769828471
 30
0.0
  0
VERTEX
  5
861
  8
DRAFT
 10
-751.2006733634739
 20
-28.68958769990456
 30
0.0
 42
0.1609716664715893
  0
VERTEX
  5
862
  8
DRAFT
 10
-751.1916634044908
 20
-28.65140998722724
 30
0.0
  0
VERTEX
  5
863
  8
DRAFT
 10
-751.1933112578015
 20
-28.6326136287666
 30
0.0
 42
0.2261705714016988
  0
VERTEX
  5
864
  8
DRAFT
 10
-751.2206111922889
 20
-28.58626503754487
 30
0.0
  0
VERTEX
  5
865
  8
DRAFT
 10
-751.3305680722417
 20
-28.51206204270579
 30
0.0
 42
0.6310043784618244
  0
VERTEX
  5
866
  8
DRAFT
 10
-751.5250157881925
 20
-28.62656058761684
 30
0.0
  0
VERTEX
  5
867
  8
DRAFT
 10
-751.5025726260492
 20
-28.88332049825867
 30
0.0
 42
0.4142489508368967
  0
VERTEX
  5
868
  8
DRAFT
 10
-751.0962979800952
 20
-29.2242382204674
 30
0.0
  0
VERTEX
  5
869
  8
DRAFT
 10
-750.3488141906909
 20
-29.15881030403049
 30
0.0
 42
0.4141732650315483
  0
VERTEX
  5
86A
  8
DRAFT
 10
-750.0079371091055
 20
-28.75259100454516
 30
0.0
  0
VERTEX
  5
86B
  8
DRAFT
 10
-750.0303694037788
 20
-28.49590581922969
 30
0.0
 42
0.631094706483701
  0
VERTEX
  5
86C
  8
DRAFT
 10
-750.2417549207349
 20
-28.41689779122357
 30
0.0
  0
VERTEX
  5
86D
  8
DRAFT
 10
-750.3369884557173
 20
-28.50892075879309
 30
0.0
 42
0.2261705714024338
  0
VERTEX
  5
86E
  8
DRAFT
 10
-750.3558210722184
 20
-28.55930737295752
 30
0.0
  0
VERTEX
  5
86F
  8
DRAFT
 10
-750.3541783623988
 20
-28.57810418163259
 30
0.0
 42
0.1609716664694668
  0
VERTEX
  5
870
  8
DRAFT
 10
-750.3386727752497
 20
-28.61413602689922
 30
0.0
  0
VERTEX
  5
871
  8
DRAFT
 10
-750.3315543544608
 20
-28.62216137694591
 30
0.0
 42
-2.022848026575568
  0
VERTEX
  5
872
  8
DRAFT
 10
-750.4311648352543
 20
-28.63043346982721
 30
0.0
  0
VERTEX
  5
873
  8
DRAFT
 10
-750.4256640747736
 20
-28.62158764333611
 30
0.0
 42
0.1622776624636245
  0
VERTEX
  5
874
  8
DRAFT
 10
-750.4164763317499
 20
-28.583141766832
 30
0.0
  0
VERTEX
  5
875
  8
DRAFT
 10
-750.420397339336
 20
-28.5382753951036
 30
0.0
 42
-0.2214558604856136
  0
VERTEX
  5
876
  8
DRAFT
 10
-750.4023648571975
 20
-28.48867595619733
 30
0.0
  0
VERTEX
  5
877
  8
DRAFT
 10
-750.1020255867222
 20
-28.18784638076968
 30
0.0
 42
0.2214556596417201
  0
VERTEX
  5
878
  8
DRAFT
 10
-750.0659606141106
 20
-28.08864759832447
 30
0.0
  0
VERTEX
  5
879
  8
DRAFT
 10
-750.1170410486461
 20
-27.50415140676371
 30
0.0
 42
0.6310947064872285
  0
VERTEX
  5
87A
  8
DRAFT
 10
-750.3284265656023
 20
-27.42514337875721
 30
0.0
  0
VERTEX
  5
87B
  8
DRAFT
 10
-750.4236711736695
 20
-27.51717704610967
 30
0.0
 42
0.2261705714092392
  0
VERTEX
  5
87C
  8
DRAFT
 10
-750.4425037901707
 20
-27.56756366027399
 30
0.0
  0
VERTEX
  5
87D
  8
DRAFT
 10
-750.440861080351
 20
-27.58636046894905
 30
0.0
 42
0.1609716664711649
  0
VERTEX
  5
87E
  8
DRAFT
 10
-750.4253554932019
 20
-27.62239231421582
 30
0.0
  0
VERTEX
  5
87F
  8
DRAFT
 10
-750.418237072413
 20
-27.63041766426241
 30
0.0
 42
-2.022848026581745
  0
VERTEX
  5
880
  8
DRAFT
 10
-750.5178475532068
 20
-27.63868975714328
 30
0.0
  0
VERTEX
  5
881
  8
DRAFT
 10
-750.5123467927257
 20
-27.62984393065246
 30
0.0
 42
0.1622776624671339
  0
VERTEX
  5
882
  8
DRAFT
 10
-750.503159049702
 20
-27.59139805414858
 30
0.0
  0
VERTEX
  5
883
  8
DRAFT
 10
-750.5070800572881
 20
-27.54653168242018
 30
0.0
 42
-0.2214558604950321
  0
VERTEX
  5
884
  8
DRAFT
 10
-750.4890475751495
 20
-27.49693224351396
 30
0.0
  0
VERTEX
  5
885
  8
DRAFT
 10
-750.188697199641
 20
-27.1960905904598
 30
0.0
 42
0.2214552436183382
  0
VERTEX
  5
886
  8
DRAFT
 10
-750.1526323671272
 20
-27.09689194834131
 30
0.0
  0
VERTEX
  5
887
  8
DRAFT
 10
-750.5465931258038
 20
-22.58913764696239
 30
0.0
 42
-0.0436214061424904
  0
VERTEX
  5
888
  8
DRAFT
 10
-750.5465931258035
 20
-18.22380719191686
 30
0.0
  0
VERTEX
  5
889
  8
DRAFT
 10
-750.1526323671261
 20
-13.71605289053797
 30
0.0
 42
0.2214552436149965
  0
VERTEX
  5
88A
  8
DRAFT
 10
-750.1886971996397
 20
-13.61685424841945
 30
0.0
  0
VERTEX
  5
88B
  8
DRAFT
 10
-750.4890475751482
 20
-13.31601259536532
 30
0.0
 42
-0.2214558604948569
  0
VERTEX
  5
88C
  8
DRAFT
 10
-750.5070800572869
 20
-13.26641315645909
 30
0.0
  0
VERTEX
  5
88D
  8
DRAFT
 10
-750.5031590497008
 20
-13.22154678473069
 30
0.0
 42
0.1622776624561029
  0
VERTEX
  5
88E
  8
DRAFT
 10
-750.5123467927244
 20
-13.18310090822682
 30
0.0
  0
VERTEX
  5
88F
  8
DRAFT
 10
-750.5178475532049
 20
-13.17425508173561
 30
0.0
 42
-1.989253265148458
  0
VERTEX
  5
890
  8
DRAFT
 10
-750.4182370724116
 20
-13.18252717461704
 30
0.0
  0
VERTEX
  5
891
  8
DRAFT
 10
-750.4253554932006
 20
-13.19055252466347
 30
0.0
 42
0.1609716664654622
  0
VERTEX
  5
892
  8
DRAFT
 10
-750.4408610803498
 20
-13.22658436993022
 30
0.0
  0
VERTEX
  5
893
  8
DRAFT
 10
-750.4425037901694
 20
-13.24538117860529
 30
0.0
 42
0.2261705714120784
  0
VERTEX
  5
894
  8
DRAFT
 10
-750.4236711736681
 20
-13.29576779276961
 30
0.0
  0
VERTEX
  5
895
  8
DRAFT
 10
-750.3284265656009
 20
-13.38780146012202
 30
0.0
 42
0.6310947064837166
  0
VERTEX
  5
896
  8
DRAFT
 10
-750.1170410486451
 20
-13.30879343211554
 30
0.0
  0
VERTEX
  5
897
  8
DRAFT
 10
-750.0659606141093
 20
-12.7242972405548
 30
0.0
 42
0.2214556596406049
  0
VERTEX
  5
898
  8
DRAFT
 10
-750.102025586721
 20
-12.62509845810956
 30
0.0
  0
VERTEX
  5
899
  8
DRAFT
 10
-750.4023648571958
 20
-12.3242688826819
 30
0.0
 42
-0.2214558604921619
  0
VERTEX
  5
89A
  8
DRAFT
 10
-750.4203973393346
 20
-12.27466944377566
 30
0.0
  0
VERTEX
  5
89B
  8
DRAFT
 10
-750.4164763317484
 20
-12.22980307204727
 30
0.0
 42
0.1622776624608973
  0
VERTEX
  5
89C
  8
DRAFT
 10
-750.425664074772
 20
-12.19135719554315
 30
0.0
  0
VERTEX
  5
89D
  8
DRAFT
 10
-750.4311648352526
 20
-12.18251136905196
 30
0.0
 42
-1.989253265122804
  0
VERTEX
  5
89E
  8
DRAFT
 10
-750.3315543544591
 20
-12.19078346193357
 30
0.0
  0
VERTEX
  5
89F
  8
DRAFT
 10
-750.3386727752483
 20
-12.19880881198005
 30
0.0
 42
0.1609716664751149
  0
VERTEX
  5
8A0
  8
DRAFT
 10
-750.3541783623973
 20
-12.23484065724668
 30
0.0
  0
VERTEX
  5
8A1
  8
DRAFT
 10
-750.355821072217
 20
-12.25363746592175
 30
0.0
 42
0.2261705714094297
  0
VERTEX
  5
8A2
  8
DRAFT
 10
-750.3369884557158
 20
-12.30402408008616
 30
0.0
  0
VERTEX
  5
8A3
  8
DRAFT
 10
-750.2417549207336
 20
-12.3960470476557
 30
0.0
 42
0.6310947064858633
  0
VERTEX
  5
8A4
  8
DRAFT
 10
-750.0303694037775
 20
-12.31703901964957
 30
0.0
  0
VERTEX
  5
8A5
  8
DRAFT
 10
-750.0079371091036
 20
-12.06035383433412
 30
0.0
 42
0.4141732650322855
  0
VERTEX
  5
8A6
  8
DRAFT
 10
-750.3488141906894
 20
-11.65413453484893
 30
0.0
  0
VERTEX
  5
8A7
  8
DRAFT
 10
-751.0962979800936
 20
-11.58870661841188
 30
0.0
 42
0.4142489508373315
  0
VERTEX
  5
8A8
  8
DRAFT
 10
-751.5025726260476
 20
-11.92962434062038
 30
0.0
  0
VERTEX
  5
8A9
  8
DRAFT
 10
-751.5250157881909
 20
-12.18638425126219
 30
0.0
 42
0.6310043784627892
  0
VERTEX
  5
8AA
  8
DRAFT
 10
-751.3305680722402
 20
-12.30088279617344
 30
0.0
  0
VERTEX
  5
8AB
  8
DRAFT
 10
-751.2206111922875
 20
-12.22667980133442
 30
0.0
 42
0.2261705713978413
  0
VERTEX
  5
8AC
  8
DRAFT
 10
-751.1933112578
 20
-12.1803312101127
 30
0.0
  0
VERTEX
  5
8AD
  8
DRAFT
 10
-751.1916634044892
 20
-12.16153485165228
 30
0.0
 42
0.1609716664679468
  0
VERTEX
  5
8AE
  8
DRAFT
 10
-751.2006733634724
 20
-12.12335713897474
 30
0.0
  0
VERTEX
  5
8AF
  8
DRAFT
 10
-751.2062892861496
 20
-12.11421714059495
 30
0.0
 42
-2.022848026529983
  0
VERTEX
  5
8B0
  8
DRAFT
 10
-751.1067564456941
 20
-12.12337623855132
 30
0.0
  0
VERTEX
  5
8B1
  8
DRAFT
 10
-751.1137103488464
 20
-12.13113189733202
 30
0.0
 42
0.162277662473301
  0
VERTEX
  5
8B2
  8
DRAFT
 10
-751.1294376047991
 20
-12.1673969419651
 30
0.0
  0
VERTEX
  5
8B3
  8
DRAFT
 10
-751.1333708894579
 20
-12.2122622390701
 30
0.0
 42
-0.2214558604963925
  0
VERTEX
  5
8B4
  8
DRAFT
 10
-751.1597461005573
 20
-12.25797463335649
 30
0.0
  0
VERTEX
  5
8B5
  8
DRAFT
 10
-751.5078533189238
 20
-12.50210176401554
 30
0.0
 42
0.2215234308487653
  0
VERTEX
  5
8B6
  8
DRAFT
 10
-751.5606065495971
 20
-12.59355863515968
 30
0.0
  0
VERTEX
  5
8B7
  8
DRAFT
 10
-751.6116859099824
 20
-13.1779295862971
 30
0.0
 42
0.6310043784629678
  0
VERTEX
  5
8B8
  8
DRAFT
 10
-751.4172381940317
 20
-13.29242813120803
 30
0.0
  0
VERTEX
  5
8B9
  8
DRAFT
 10
-751.3075429727215
 20
-13.21840171335887
 30
0.0
 42
0.2261705714096448
  0
VERTEX
  5
8BA
  8
DRAFT
 10
-751.280243038234
 20
-13.17205312213723
 30
0.0
  0
VERTEX
  5
8BB
  8
DRAFT
 10
-751.2785951849232
 20
-13.1532567636766
 30
0.0
 42
0.1609716664770454
  0
VERTEX
  5
8BC
  8
DRAFT
 10
-751.2876051439064
 20
-13.11507905099901
 30
0.0
  0
VERTEX
  5
8BD
  8
DRAFT
 10
-751.2932210665836
 20
-13.10593905261892
 30
0.0
 42
-2.02284802657008
  0
VERTEX
  5
8BE
  8
DRAFT
 10
-751.193688226128
 20
-13.11509815057571
 30
0.0
  0
VERTEX
  5
8BF
  8
DRAFT
 10
-751.2006421292804
 20
-13.1228538093565
 30
0.0
 42
0.1622776624614909
  0
VERTEX
  5
8C0
  8
DRAFT
 10
-751.216369385233
 20
-13.15911885398939
 30
0.0
  0
VERTEX
  5
8C1
  8
DRAFT
 10
-751.2203026698918
 20
-13.20398415109465
 30
0.0
 42
-0.2214558604967047
  0
VERTEX
  5
8C2
  8
DRAFT
 10
-751.2466778809915
 20
-13.24969654538078
 30
0.0
  0
VERTEX
  5
8C3
  8
DRAFT
 10
-751.6282209537924
 20
-13.51727310139533
 30
0.0
 42
0.1738231549328499
  0
VERTEX
  5
8C4
  8
DRAFT
 10
-751.6768940285906
 20
-13.58617869494186
 30
0.0
 42
-0.3369513388470215
  0
VERTEX
  5
8C5
  8
DRAFT
 10
-753.3631268776335
 20
-14.86807744623922
 30
0.0
  0
SEQEND
  5
8C6
  8
DRAFT
  0
POLYLINE
  5
8C7
  8
DRAFT
 66
     1
 10
0.0
 20
0.0
 30
0.0
 70
     1
  0
VERTEX
  5
8C8
  8
DRAFT
 10
-750.6586544393674
 20
-14.13269462512152
 30
0.0
 42
0.4142135623676668
  0
VERTEX
  5
8C9
  8
DRAFT
 10
-750.6247985478751
 20
-14.10428857627175
 30
0.0
  0
VERTEX
  5
8CA
  8
DRAFT
 10
-750.588258903609
 20
-13.68683998174434
 30
0.0
 42
0.4142135623731596
  0
VERTEX
  5
8CB
  8
DRAFT
 10
-750.616664952459
 20
-13.65298409025171
 30
0.0
  0
VERTEX
  5
8CC
  8
DRAFT
 10
-751.1587760052984
 20
-13.60553263087898
 30
0.0
 42
0.4142135623750457
  0
VERTEX
  5
8CD
  8
DRAFT
 10
-751.1926318967905
 20
-13.63393867972888
 30
0.0
  0
VERTEX
  5
8CE
  8
DRAFT
 10
-751.2291715410568
 20
-14.0513872742565
 30
0.0
 42
0.4142135623641905
  0
VERTEX
  5
8CF
  8
DRAFT
 10
-751.2007654922065
 20
-14.08524316574854
 30
0.0
  0
SEQEND
  5
8D0
  8
DRAFT
  0
POLYLINE
  5
8D1
  8
DRAFT
 66
     1
 10
0.0
 20
0.0
 30
0.0
  0
VERTEX
  5
8D2
  8
DRAFT
 10
-751.3260672407636
 20
-15.2524155305989
 30
0.0
  0
VERTEX
  5
8D3
  8
DRAFT
 10
-751.5025589056023
 20
-15.2369745107187
 30
0.0
  0
VERTEX
  5
8D4
  8
DRAFT
 10
-750.7688944232809
 20
-15.30116183575348
 30
0.0
 42
0.4142135330888768
  0
VERTEX
  5
8D5
  8
DRAFT
 10
-750.7350397222768
 20
-15.27275437151218
 30
0.0
  0
VERTEX
  5
8D6
  8
DRAFT
 10
-750.6890169767262
 20
-14.74671258864507
 30
0.0
 42
0.4142135777967303
  0
VERTEX
  5
8D7
  8
DRAFT
 10
-750.717424442333
 20
-14.71285788438482
 30
0.0
  0
VERTEX
  5
8D8
  8
DRAFT
 10
-751.4510889248313
 20
-14.64867052430235
 30
0.0
 42
1.000000000013785
  0
VERTEX
  5
8D9
  8
DRAFT
 10
-751.4545751545411
 20
-14.68851831222659
 30
0.0
  0
VERTEX
  5
8DA
  8
DRAFT
 10
-751.3092145974044
 20
-14.70123574239572
 30
0.0
 42
-0.4142135183872347
  0
VERTEX
  5
8DB
  8
DRAFT
 10
-751.2808071364121
 20
-14.73509044467869
 30
0.0
  0
VERTEX
  5
8DC
  8
DRAFT
 10
-751.3198573926786
 20
-15.18143666004674
 30
0.0
 42
-0.4142135477690824
  0
VERTEX
  5
8DD
  8
DRAFT
 10
-751.3537120938191
 20
-15.20984412584995
 30
0.0
  0
VERTEX
  5
8DE
  8
DRAFT
 10
-751.4990726758923
 20
-15.19712672279478
 30
0.0
 42
1.000000000000056
  0
VERTEX
  5
8DF
  8
DRAFT
 10
-751.5025589056023
 20
-15.23697451071846
 30
0.0
  0
SEQEND
  5
8E0
  8
DRAFT
  0
POLYLINE
  5
8E1
  8
DRAFT
 66
     1
 10
0.0
 20
0.0
 30
0.0
  0
VERTEX
  5
8E2
  8
DRAFT
 10
-750.4725886891642
 20
-12.79388957810748
 30
0.0
  0
VERTEX
  5
8E3
  8
DRAFT
 10
-750.4704224477211
 20
-12.7691022162969
 30
0.0
 42
0.1594425821254144
  0
VERTEX
  5
8E4
  8
DRAFT
 10
-750.4880747534914
 20
-12.6933878828636
 30
0.0
 42
0.0948242332930074
  0
VERTEX
  5
8E5
  8
DRAFT
 10
-750.6087973313169
 20
-12.55875583623351
 30
0.0
 42
0.2963770830172237
  0
VERTEX
  5
8E6
  8
DRAFT
 10
-750.9969655243705
 20
-12.52483265715982
 30
0.0
 42
0.0931204833713426
  0
VERTEX
  5
8E7
  8
DRAFT
 10
-751.1392114652531
 20
-12.63648309862342
 30
0.0
 42
0.1594425821289397
  0
VERTEX
  5
8E8
  8
DRAFT
 10
-751.169729671061
 20
-12.70798766701259
 30
0.0
  0
VERTEX
  5
8E9
  8
DRAFT
 10
-751.1718959129478
 20
-12.73277502878442
 30
0.0
  0
SEQEND
  5
8EA
  8
DRAFT
  0
POLYLINE
  5
8EB
  8
DRAFT
 66
     1
 10
0.0
 20
0.0
 30
0.0
 70
     1
  0
VERTEX
  5
8EC
  8
DRAFT
 10
-750.6586544393684
 20
-26.68025021375773
 30
0.0
 42
-0.4142135623647971
  0
VERTEX
  5
8ED
  8
DRAFT
 10
-750.6247985478765
 20
-26.70865626260751
 30
0.0
  0
VERTEX
  5
8EE
  8
DRAFT
 10
-750.5882589036102
 20
-27.12610485713491
 30
0.0
 42
-0.4142135623720942
  0
VERTEX
  5
8EF
  8
DRAFT
 10
-750.6166649524602
 20
-27.15996074862746
 30
0.0
  0
VERTEX
  5
8F0
  8
DRAFT
 10
-751.1587760052995
 20
-27.20741220800026
 30
0.0
 42
-0.4142135623796455
  0
VERTEX
  5
8F1
  8
DRAFT
 10
-751.1926318967918
 20
-27.17900615915035
 30
0.0
  0
VERTEX
  5
8F2
  8
DRAFT
 10
-751.2291715410579
 20
-26.76155756462275
 30
0.0
 42
-0.4142135623566214
  0
VERTEX
  5
8F3
  8
DRAFT
 10
-751.2007654922077
 20
-26.72770167313076
 30
0.0
  0
SEQEND
  5
8F4
  8
DRAFT
  0
POLYLINE
  5
8F5
  8
DRAFT
 66
     1
 10
0.0
 20
0.0
 30
0.0
  0
VERTEX
  5
8F6
  8
DRAFT
 10
-751.3260672407645
 20
-25.56052930828035
 30
0.0
  0
VERTEX
  5
8F7
  8
DRAFT
 10
-751.5025589056032
 20
-25.57597032816055
 30
0.0
  0
VERTEX
  5
8F8
  8
DRAFT
 10
-750.7688944232818
 20
-25.51178300312561
 30
0.0
 42
-0.4142135330870493
  0
VERTEX
  5
8F9
  8
DRAFT
 10
-750.7350397222783
 20
-25.5401904673671
 30
0.0
  0
VERTEX
  5
8FA
  8
DRAFT
 10
-750.6890169767272
 20
-26.06623225023416
 30
0.0
 42
-0.4142135777845453
  0
VERTEX
  5
8FB
  8
DRAFT
 10
-750.717424442334
 20
-26.10008695449448
 30
0.0
  0
VERTEX
  5
8FC
  8
DRAFT
 10
-751.4510889248323
 20
-26.1642743145769
 30
0.0
 42
-1.000000000017286
  0
VERTEX
  5
8FD
  8
DRAFT
 10
-751.4545751545421
 20
-26.12442652665279
 30
0.0
  0
VERTEX
  5
8FE
  8
DRAFT
 10
-751.3092145974055
 20
-26.11170909648352
 30
0.0
 42
0.4142135183900846
  0
VERTEX
  5
8FF
  8
DRAFT
 10
-751.2808071364129
 20
-26.07785439420055
 30
0.0
  0
VERTEX
  5
900
  8
DRAFT
 10
-751.3198573926796
 20
-25.6315081788325
 30
0.0
 42
0.4142135477749398
  0
VERTEX
  5
901
  8
DRAFT
 10
-751.35371209382
 20
-25.6031007130294
 30
0.0
  0
VERTEX
  5
902
  8
DRAFT
 10
-751.4990726758932
 20
-25.61581811608447
 30
0.0
 42
-1.000000000000124
  0
VERTEX
  5
903
  8
DRAFT
 10
-751.5025589056031
 20
-25.57597032816094
 30
0.0
  0
SEQEND
  5
904
  8
DRAFT
  0
POLYLINE
  5
905
  8
DRAFT
 66
     1
 10
0.0
 20
0.0
 30
0.0
  0
VERTEX
  5
906
  8
DRAFT
 10
-750.4725886891656
 20
-28.01905526077199
 30
0.0
  0
VERTEX
  5
907
  8
DRAFT
 10
-750.4704224477225
 20
-28.04384262258257
 30
0.0
 42
-0.1594425821260847
  0
VERTEX
  5
908
  8
DRAFT
 10
-750.4880747534929
 20
-28.11955695601567
 30
0.0
 42
-0.0948242332903426
  0
VERTEX
  5
909
  8
DRAFT
 10
-750.6087973313181
 20
-28.25418900264577
 30
0.0
 42
-0.296377083017057
  0
VERTEX
  5
90A
  8
DRAFT
 10
-750.9969655243718
 20
-28.28811218171942
 30
0.0
 42
-0.0931204833726676
  0
VERTEX
  5
90B
  8
DRAFT
 10
-751.1392114652544
 20
-28.17646174025571
 30
0.0
 42
-0.1594425821329745
  0
VERTEX
  5
90C
  8
DRAFT
 10
-751.1697296710623
 20
-28.10495717186663
 30
0.0
  0
VERTEX
  5
90D
  8
DRAFT
 10
-751.1718959129491
 20
-28.08016981009483
 30
0.0
  0
SEQEND
  5
90E
  8
DRAFT
  0
POLYLINE
  5
90F
  8
DRAFT
 66
     1
 10
0.0
 20
0.0
 30
0.0
 70
     1
  0
VERTEX
  5
910
  8
DRAFT
 10
-797.756513246543
 20
-11.33727826046498
 30
0.0
  0
VERTEX
  5
911
  8
DRAFT
 10
-797.756513246543
 20
-35.33727826046498
 30
0.0
  0
VERTEX
  5
912
  8
DRAFT
 10
-749.756513246543
 20
-35.33727826046498
 30
0.0
  0
VERTEX
  5
913
  8
DRAFT
 10
-749.756513246543
 20
-11.33727826046498
 30
0.0
  0
SEQEND
  5
914
  8
DRAFT
  0
ENDSEC
  0
EOF
